ISO-10303-21;
HEADER;
FILE_DESCRIPTION (( 'STEP AP203' ),
    '1' );
FILE_NAME ('110-5245E CaF2 pl-cx 25.4 F3000.STEP',
    '2019-01-03T12:08:53',
    ( '' ),
    ( '' ),
    'SwSTEP 2.0',
    'SolidWorks 2017',
    '' );
FILE_SCHEMA (( 'CONFIG_CONTROL_DESIGN' ));
ENDSEC;

DATA;
#1 = DIRECTION ( 'NONE',  ( -0.0000000000000000000, -0.0000000000000000000, -1.000000000000000000 ) ) ;
#2 = CARTESIAN_POINT ( 'NONE',  ( 4.258898860353151700, 4.284281346128093300, -0.02193813493085799300 ) ) ;
#3 = APPROVAL_PERSON_ORGANIZATION ( #44, #228, #210 ) ;
#4 = CARTESIAN_POINT ( 'NONE',  ( -8.517146991877560000, 12.85239470361235600, 0.08748916879884627300 ) ) ;
#5 = CARTESIAN_POINT ( 'NONE',  ( 0.0000000000000000000, 0.0000000000000000000, 0.0000000000000000000 ) ) ;
#6 = CARTESIAN_POINT ( 'NONE',  ( 3.295974604355933500E-014, -12.85239470361205200, 0.06581210392466596600 ) ) ;
#7 = CARTESIAN_POINT ( 'NONE',  ( -4.258601081181923000, -12.85239470361205100, 0.06581210392466700600 ) ) ;
#8 = CALENDAR_DATE ( 2019, 3, 1 ) ;
#9 = CIRCLE ( 'NONE', #37, 12.69999999999999900 ) ;
#10 = PLANE ( 'NONE',  #20 ) ;
#11 = DATE_TIME_ROLE ( 'creation_date' ) ;
#12 = COORDINATED_UNIVERSAL_TIME_OFFSET ( 2, 0, .AHEAD. ) ;
#13 = ORIENTED_EDGE ( 'NONE', *, *, #103, .T. ) ;
#14 = CIRCLE ( 'NONE', #87, 12.69999999999999900 ) ;
#15 = EDGE_LOOP ( 'NONE', ( #94, #13, #70 ) ) ;
#16 = ADVANCED_FACE ( 'NONE', ( #209 ), #142, .T. ) ;
#17 = AXIS2_PLACEMENT_3D ( 'NONE', #116, #1, #22 ) ;
#18 = DATE_AND_TIME ( #122, #65 ) ;
#19 = VERTEX_POINT ( 'NONE', #148 ) ;
#20 = AXIS2_PLACEMENT_3D ( 'NONE', #106, #43, #84 ) ;
#21 = CARTESIAN_POINT ( 'NONE',  ( 8.517742546361898100, -4.284281346127788700, -0.0002595543057423842700 ) ) ;
#22 = DIRECTION ( 'NONE',  ( 1.000000000000000000, 0.0000000000000000000, 0.0000000000000000000 ) ) ;
#23 = CALENDAR_DATE ( 2019, 3, 1 ) ;
#24 = DIRECTION ( 'NONE',  ( 1.000000000000000000, 0.0000000000000000000, 0.0000000000000000000 ) ) ;
#25 = DIRECTION ( 'NONE',  ( 1.000000000000000000, 0.0000000000000000000, 0.0000000000000000000 ) ) ;
#26 = AXIS2_PLACEMENT_3D ( 'NONE', #59, #24, #58 ) ;
#27 = PERSON_AND_ORGANIZATION ( #222, #113 ) ;
#28 = CARTESIAN_POINT ( 'NONE',  ( 3.295974604355934100E-014, 4.284281346128092400, -0.02193813493072610500 ) ) ;
#29 = SECURITY_CLASSIFICATION ( '', '', #191 ) ;
#30 = VERTEX_POINT ( 'NONE', #77 ) ;
#31 = DIRECTION ( 'NONE',  ( 0.0000000000000000000, 0.0000000000000000000, 1.000000000000000000 ) ) ;
#32 = FACE_OUTER_BOUND ( 'NONE', #185, .T. ) ;
#33 = DIRECTION ( 'NONE',  ( 1.000000000000000000, 0.0000000000000000000, 0.0000000000000000000 ) ) ;
#34 = CC_DESIGN_PERSON_AND_ORGANIZATION_ASSIGNMENT ( #50, #110, ( #214 ) ) ;
#35 = APPLICATION_CONTEXT ( 'configuration controlled 3d designs of mechanical parts and assemblies' ) ;
#36 = PERSON_AND_ORGANIZATION ( #222, #113 ) ;
#37 = AXIS2_PLACEMENT_3D ( 'NONE', #104, #151, #81 ) ;
#38 = ORIENTED_EDGE ( 'NONE', *, *, #80, .F. ) ;
#39 = AXIS2_PLACEMENT_3D ( 'NONE', #121, #204, #25 ) ;
#40 = CALENDAR_DATE ( 2019, 3, 1 ) ;
#41 = CC_DESIGN_PERSON_AND_ORGANIZATION_ASSIGNMENT ( #115, #112, ( #29 ) ) ;
#42 = EDGE_CURVE ( 'NONE', #85, #19, #220, .T. ) ;
#43 = DIRECTION ( 'NONE',  ( 0.0000000000000000000, 0.0000000000000000000, 1.000000000000000000 ) ) ;
#44 = PERSON_AND_ORGANIZATION ( #222, #113 ) ;
#45 = DIRECTION ( 'NONE',  ( 0.0000000000000000000, 0.0000000000000000000, 1.000000000000000000 ) ) ;
#46 = APPROVAL_ROLE ( '' ) ;
#47 =( NAMED_UNIT ( * ) SI_UNIT ( $, .STERADIAN. ) SOLID_ANGLE_UNIT ( ) );
#48 = CARTESIAN_POINT ( 'NONE',  ( 12.69999999999999900, 2.442490654175340100E-015, 0.06426060933303330600 ) ) ;
#49 = CIRCLE ( 'NONE', #26, 1255.000000000000200 ) ;
#50 = PERSON_AND_ORGANIZATION ( #222, #113 ) ;
#51 = ADVANCED_FACE ( 'NONE', ( #130 ), #218, .T. ) ;
#52 = LINE ( 'NONE', #82, #143 ) ;
#53 = CC_DESIGN_DATE_AND_TIME_ASSIGNMENT ( #231, #11, ( #214 ) ) ;
#54 = AXIS2_PLACEMENT_3D ( 'NONE', #140, #157, #169 ) ;
#55 = CARTESIAN_POINT ( 'NONE',  ( 12.77552739254383600, -12.85239470361205200, 0.1308427368912522000 ) ) ;
#56 = CARTESIAN_POINT ( 'NONE',  ( 12.77642071076802000, 4.284281346128092400, 0.04309704524927639900 ) ) ;
#57 = CARTESIAN_POINT ( 'NONE',  ( 8.517742546361898100, 4.284281346128093300, -0.0002595543057398093900 ) ) ;
#58 = DIRECTION ( 'NONE',  ( 0.0000000000000000000, -1.000000000000000000, -3.538559441036354800E-016 ) ) ;
#59 = CARTESIAN_POINT ( 'NONE',  ( 3.410605131648479900E-013, 3.410605131648479900E-013, 1255.000000000000200 ) ) ;
#60 = CARTESIAN_POINT ( 'NONE',  ( 4.996003610813200500E-016, 2.442490654175340100E-015, 0.06426060933303330600 ) ) ;
#61 = ADVANCED_BREP_SHAPE_REPRESENTATION ( '110-5245E CaF2 pl-cx 25.4 F3000', ( #83, #192 ), #108 ) ;
#62 = EDGE_LOOP ( 'NONE', ( #182, #215 ) ) ;
#63 = CLOSED_SHELL ( 'NONE', ( #16, #176, #173, #51, #71 ) ) ;
#64 = MECHANICAL_CONTEXT ( 'NONE', #35, 'mechanical' ) ;
#65 = LOCAL_TIME ( 14, 8, 53.00000000000000000, #164 ) ;
#66 = EDGE_CURVE ( 'NONE', #195, #216, #52, .T. ) ;
#67 = APPROVAL_STATUS ( 'not_yet_approved' ) ;
#68 = APPROVAL_STATUS ( 'not_yet_approved' ) ;
#69 = ORIENTED_EDGE ( 'NONE', *, *, #66, .F. ) ;
#70 = ORIENTED_EDGE ( 'NONE', *, *, #97, .T. ) ;
#71 = ADVANCED_FACE ( 'NONE', ( #74 ), #10, .T. ) ;
#72 = APPROVAL_DATE_TIME ( #93, #171 ) ;
#73 = COORDINATED_UNIVERSAL_TIME_OFFSET ( 2, 0, .AHEAD. ) ;
#74 = FACE_OUTER_BOUND ( 'NONE', #62, .T. ) ;
#75 = CARTESIAN_POINT ( 'NONE',  ( 4.258898860353151700, -4.284281346127788700, -0.02193813493086057100 ) ) ;
#76 = ORIENTED_EDGE ( 'NONE', *, *, #42, .F. ) ;
#77 = CARTESIAN_POINT ( 'NONE',  ( -12.69999999999999900, 3.997792089092478900E-015, 3.100000000000000500 ) ) ;
#78 = PRODUCT_RELATED_PRODUCT_CATEGORY ( 'detail', '', ( #79 ) ) ;
#79 = PRODUCT ( '110-5245E CaF2 pl-cx 25.4 F3000', '110-5245E CaF2 pl-cx 25.4 F3000', '', ( #64 ) ) ;
#80 = EDGE_CURVE ( 'NONE', #85, #30, #165, .T. ) ;
#81 = DIRECTION ( 'NONE',  ( 1.000000000000000000, 0.0000000000000000000, 0.0000000000000000000 ) ) ;
#82 = CARTESIAN_POINT ( 'NONE',  ( 12.69999999999999900, 2.442490654175340100E-015, 0.06426060933303330600 ) ) ;
#83 = MANIFOLD_SOLID_BREP ( 'Imported1', #63 ) ;
#84 = DIRECTION ( 'NONE',  ( 1.000000000000000000, 0.0000000000000000000, -0.0000000000000000000 ) ) ;
#85 = VERTEX_POINT ( 'NONE', #155 ) ;
#86 = DIRECTION ( 'NONE',  ( -0.0000000000000000000, -0.0000000000000000000, -1.000000000000000000 ) ) ;
#87 = AXIS2_PLACEMENT_3D ( 'NONE', #187, #223, #154 ) ;
#88 = CARTESIAN_POINT ( 'NONE',  ( -8.517742546361702700, -4.284281346127788700, -0.0002595543056518331100 ) ) ;
#89 = PERSON_AND_ORGANIZATION_ROLE ( 'design_owner' ) ;
#90 = ORIENTED_EDGE ( 'NONE', *, *, #114, .T. ) ;
#91 = APPLICATION_PROTOCOL_DEFINITION ( 'international standard', 'config_control_design', 1994, #170 ) ;
#92 = APPLICATION_PROTOCOL_DEFINITION ( 'international standard', 'config_control_design', 1994, #35 ) ;
#93 = DATE_AND_TIME ( #178, #206 ) ;
#94 = ORIENTED_EDGE ( 'NONE', *, *, #212, .T. ) ;
#95 = COORDINATED_UNIVERSAL_TIME_OFFSET ( 2, 0, .AHEAD. ) ;
#96 = CARTESIAN_POINT ( 'NONE',  ( 4.996003610813200500E-016, 2.442490654175340100E-015, 0.06426060933303330600 ) ) ;
#97 = EDGE_CURVE ( 'NONE', #19, #195, #156, .T. ) ;
#98 = DATE_AND_TIME ( #40, #144 ) ;
#99 = CARTESIAN_POINT ( 'NONE',  ( 3.410605131648479900E-013, 12.85239470361235800, 0.06581210392453407100 ) ) ;
#100 = CARTESIAN_POINT ( 'NONE',  ( 3.410605131648479900E-013, 4.284281346128092400, -0.02193813493085799300 ) ) ;
#101 = CARTESIAN_POINT ( 'NONE',  ( 4.996003610813200500E-016, 2.442490654175340100E-015, 3.100000000000000500 ) ) ;
#102 = PERSON_AND_ORGANIZATION ( #222, #113 ) ;
#103 = EDGE_CURVE ( 'NONE', #175, #19, #49, .T. ) ;
#104 = CARTESIAN_POINT ( 'NONE',  ( 4.996003610813200500E-016, 2.442490654175340100E-015, 0.06426060933303330600 ) ) ;
#105 = CARTESIAN_POINT ( 'NONE',  ( -8.517742546361702700, 4.284281346128093300, -0.0002595543056492445200 ) ) ;
#106 = CARTESIAN_POINT ( 'NONE',  ( 0.0000000000000000000, 26.11199999999999800, 3.100000000000000500 ) ) ;
#107 = PERSON_AND_ORGANIZATION_ROLE ( 'creator' ) ;
#108 =( GEOMETRIC_REPRESENTATION_CONTEXT ( 3 ) GLOBAL_UNCERTAINTY_ASSIGNED_CONTEXT ( ( #177 ) ) GLOBAL_UNIT_ASSIGNED_CONTEXT ( ( #138, #126, #47 ) ) REPRESENTATION_CONTEXT ( 'NONE', 'WORKASPACE' ) );
#109 = SHAPE_DEFINITION_REPRESENTATION ( #194, #61 ) ;
#110 = PERSON_AND_ORGANIZATION_ROLE ( 'creator' ) ;
#111 = ORIENTED_EDGE ( 'NONE', *, *, #42, .T. ) ;
#112 = PERSON_AND_ORGANIZATION_ROLE ( 'classification_officer' ) ;
#113 = ORGANIZATION ( 'UNSPECIFIED', 'UNSPECIFIED', '' ) ;
#114 = EDGE_CURVE ( 'NONE', #175, #85, #9, .T. ) ;
#115 = PERSON_AND_ORGANIZATION ( #222, #113 ) ;
#116 = CARTESIAN_POINT ( 'NONE',  ( 4.996003610813200500E-016, 2.442490654175340100E-015, 0.06426060933303330600 ) ) ;
#117 = EDGE_LOOP ( 'NONE', ( #38, #146, #139, #229, #174 ) ) ;
#118 = PRODUCT_DEFINITION_FORMATION_WITH_SPECIFIED_SOURCE ( 'ANY', '', #79, .NOT_KNOWN. ) ;
#119 = CARTESIAN_POINT ( 'NONE',  ( -12.77642071076791600, 4.284281346128092400, 0.04309704524936983800 ) ) ;
#120 = CARTESIAN_POINT ( 'NONE',  ( -12.77642071076791600, -4.284281346127786900, 0.04309704524936725000 ) ) ;
#121 = CARTESIAN_POINT ( 'NONE',  ( 4.996003610813200500E-016, 2.442490654175340100E-015, 0.06426060933303330600 ) ) ;
#122 = CALENDAR_DATE ( 2019, 3, 1 ) ;
#123 = VECTOR ( 'NONE', #31, 1000.000000000000000 ) ;
#124 = CARTESIAN_POINT ( 'NONE',  ( 3.295974604355933500E-014, 12.85239470361235800, 0.06581210392466596600 ) ) ;
#125 = DIRECTION ( 'NONE',  ( 1.000000000000000000, 0.0000000000000000000, 0.0000000000000000000 ) ) ;
#126 =( NAMED_UNIT ( * ) PLANE_ANGLE_UNIT ( ) SI_UNIT ( $, .RADIAN. ) );
#127 = DATE_TIME_ROLE ( 'classification_date' ) ;
#128 = COORDINATED_UNIVERSAL_TIME_OFFSET ( 2, 0, .AHEAD. ) ;
#129 = ORIENTED_EDGE ( 'NONE', *, *, #135, .T. ) ;
#130 = FACE_OUTER_BOUND ( 'NONE', #117, .T. ) ;
#131 = ORIENTED_EDGE ( 'NONE', *, *, #103, .F. ) ;
#132 = CC_DESIGN_SECURITY_CLASSIFICATION ( #29, ( #118 ) ) ;
#133 = CARTESIAN_POINT ( 'NONE',  ( 4.258601081182208100, -12.85239470361205100, 0.06581210392453409900 ) ) ;
#134 = CARTESIAN_POINT ( 'NONE',  ( 8.517146991877755400, 12.85239470361235600, 0.08748916879875576200 ) ) ;
#135 = EDGE_CURVE ( 'NONE', #30, #216, #196, .T. ) ;
#136 = CARTESIAN_POINT ( 'NONE',  ( -4.258898860352868400, -4.284281346127788700, -0.02193813493072764600 ) ) ;
#137 = CARTESIAN_POINT ( 'NONE',  ( -4.258898860352868400, 4.284281346128093300, -0.02193813493072505800 ) ) ;
#138 =( LENGTH_UNIT ( ) NAMED_UNIT ( * ) SI_UNIT ( .MILLI., .METRE. ) );
#139 = ORIENTED_EDGE ( 'NONE', *, *, #212, .F. ) ;
#140 = CARTESIAN_POINT ( 'NONE',  ( 4.996003610813200500E-016, 2.442490654175340100E-015, 0.06426060933303330600 ) ) ;
#141 = EDGE_CURVE ( 'NONE', #216, #30, #14, .T. ) ;
#142 =( BOUNDED_SURFACE ( )  B_SPLINE_SURFACE ( 3, 3, ( 
 ( #197, #133, #180, #55 ),
 ( #233, #75, #21, #150 ),
 ( #100, #2, #57, #56 ),
 ( #99, #167, #134, #219 ) ),
 .UNSPECIFIED., .F., .F., .F. ) 
 B_SPLINE_SURFACE_WITH_KNOTS ( ( 4, 4 ),
 ( 4, 4 ),
 ( 0.0000000000000000000, 1.000000000000000000 ),
 ( 0.0000000000000000000, 1.000000000000000000 ),
 .UNSPECIFIED. ) 
 GEOMETRIC_REPRESENTATION_ITEM ( )  RATIONAL_B_SPLINE_SURFACE ( (
 ( 1.000000000000000000, 0.9999913632849123400, 0.9999913632849123400, 1.000000000000000000),
 ( 0.9999650400510360400, 0.9999564036378875100, 0.9999564036378875100, 0.9999650400510360400),
 ( 0.9999650400510360400, 0.9999564036378875100, 0.9999564036378875100, 0.9999650400510360400),
 ( 1.000000000000000000, 0.9999913632849123400, 0.9999913632849123400, 1.000000000000000000) ) ) 
 REPRESENTATION_ITEM ( '' )  SURFACE ( )  );
#143 = VECTOR ( 'NONE', #45, 1000.000000000000000 ) ;
#144 = LOCAL_TIME ( 14, 8, 53.00000000000000000, #128 ) ;
#145 = LOCAL_TIME ( 14, 8, 53.00000000000000000, #73 ) ;
#146 = ORIENTED_EDGE ( 'NONE', *, *, #114, .F. ) ;
#147 = FACE_OUTER_BOUND ( 'NONE', #166, .T. ) ;
#148 = CARTESIAN_POINT ( 'NONE',  ( 3.410605131648479900E-013, 12.70000000000197300, 0.06426060933304998700 ) ) ;
#149 = ORIENTED_EDGE ( 'NONE', *, *, #97, .F. ) ;
#150 = CARTESIAN_POINT ( 'NONE',  ( 12.77642071076802000, -4.284281346127786900, 0.04309704524927381700 ) ) ;
#151 = DIRECTION ( 'NONE',  ( -0.0000000000000000000, -0.0000000000000000000, -1.000000000000000000 ) ) ;
#152 = CC_DESIGN_DATE_AND_TIME_ASSIGNMENT ( #162, #127, ( #29 ) ) ;
#153 = APPROVAL_DATE_TIME ( #18, #211 ) ;
#154 = DIRECTION ( 'NONE',  ( 1.000000000000000000, 0.0000000000000000000, 0.0000000000000000000 ) ) ;
#155 = CARTESIAN_POINT ( 'NONE',  ( -12.69999999999999900, 3.997792089092478900E-015, 0.06426060933303330600 ) ) ;
#156 = CIRCLE ( 'NONE', #190, 12.69999999999999900 ) ;
#157 = DIRECTION ( 'NONE',  ( -0.0000000000000000000, -0.0000000000000000000, -1.000000000000000000 ) ) ;
#158 = DIRECTION ( 'NONE',  ( 0.0000000000000000000, 0.0000000000000000000, 1.000000000000000000 ) ) ;
#159 = APPROVAL_ROLE ( '' ) ;
#160 = APPROVAL_DATE_TIME ( #98, #228 ) ;
#161 = APPROVAL_PERSON_ORGANIZATION ( #102, #171, #159 ) ;
#162 = DATE_AND_TIME ( #23, #145 ) ;
#163 = AXIS2_PLACEMENT_3D ( 'NONE', #101, #168, #188 ) ;
#164 = COORDINATED_UNIVERSAL_TIME_OFFSET ( 2, 0, .AHEAD. ) ;
#165 = LINE ( 'NONE', #227, #123 ) ;
#166 = EDGE_LOOP ( 'NONE', ( #76, #198, #129, #69, #149 ) ) ;
#167 = CARTESIAN_POINT ( 'NONE',  ( 4.258601081182208100, 12.85239470361235600, 0.06581210392453409900 ) ) ;
#168 = DIRECTION ( 'NONE',  ( -0.0000000000000000000, -0.0000000000000000000, -1.000000000000000000 ) ) ;
#169 = DIRECTION ( 'NONE',  ( 1.000000000000000000, 0.0000000000000000000, 0.0000000000000000000 ) ) ;
#170 = APPLICATION_CONTEXT ( 'configuration controlled 3d designs of mechanical parts and assemblies' ) ;
#171 = APPROVAL ( #68, 'UNSPECIFIED' ) ;
#172 = PERSON_AND_ORGANIZATION ( #222, #113 ) ;
#173 = ADVANCED_FACE ( 'NONE', ( #32 ), #186, .T. ) ;
#174 = ORIENTED_EDGE ( 'NONE', *, *, #141, .T. ) ;
#175 = VERTEX_POINT ( 'NONE', #183 ) ;
#176 = ADVANCED_FACE ( 'NONE', ( #147 ), #217, .T. ) ;
#177 = UNCERTAINTY_MEASURE_WITH_UNIT (LENGTH_MEASURE( 1.000000000000000100E-005 ), #138, 'distance_accuracy_value', 'NONE');
#178 = CALENDAR_DATE ( 2019, 3, 1 ) ;
#179 = AXIS2_PLACEMENT_3D ( 'NONE', #96, #181, #221 ) ;
#180 = CARTESIAN_POINT ( 'NONE',  ( 8.517146991877755400, -12.85239470361205100, 0.08748916879875576200 ) ) ;
#181 = DIRECTION ( 'NONE',  ( 0.0000000000000000000, 0.0000000000000000000, 1.000000000000000000 ) ) ;
#182 = ORIENTED_EDGE ( 'NONE', *, *, #141, .F. ) ;
#183 = CARTESIAN_POINT ( 'NONE',  ( 3.410605131648479900E-013, -12.70000000000163200, 0.06426060933304998700 ) ) ;
#184 = CC_DESIGN_PERSON_AND_ORGANIZATION_ASSIGNMENT ( #172, #107, ( #118 ) ) ;
#185 = EDGE_LOOP ( 'NONE', ( #131, #90, #111 ) ) ;
#186 =( BOUNDED_SURFACE ( )  B_SPLINE_SURFACE ( 3, 3, ( 
 ( #189, #225, #7, #6 ),
 ( #120, #88, #136, #202 ),
 ( #119, #105, #137, #28 ),
 ( #203, #4, #226, #124 ) ),
 .UNSPECIFIED., .F., .F., .F. ) 
 B_SPLINE_SURFACE_WITH_KNOTS ( ( 4, 4 ),
 ( 4, 4 ),
 ( 0.0000000000000000000, 1.000000000000000000 ),
 ( 0.0000000000000000000, 1.000000000000000000 ),
 .UNSPECIFIED. ) 
 GEOMETRIC_REPRESENTATION_ITEM ( )  RATIONAL_B_SPLINE_SURFACE ( (
 ( 1.000000000000000000, 0.9999913632849123400, 0.9999913632849123400, 1.000000000000000000),
 ( 0.9999650400510360400, 0.9999564036378875100, 0.9999564036378875100, 0.9999650400510360400),
 ( 0.9999650400510360400, 0.9999564036378875100, 0.9999564036378875100, 0.9999650400510360400),
 ( 1.000000000000000000, 0.9999913632849123400, 0.9999913632849123400, 1.000000000000000000) ) ) 
 REPRESENTATION_ITEM ( '' )  SURFACE ( )  );
#187 = CARTESIAN_POINT ( 'NONE',  ( 4.996003610813200500E-016, 2.442490654175340100E-015, 3.100000000000000500 ) ) ;
#188 = DIRECTION ( 'NONE',  ( 1.000000000000000000, 0.0000000000000000000, 0.0000000000000000000 ) ) ;
#189 = CARTESIAN_POINT ( 'NONE',  ( -12.77552739254372900, -12.85239470361205200, 0.1308427368913456200 ) ) ;
#190 = AXIS2_PLACEMENT_3D ( 'NONE', #60, #86, #125 ) ;
#191 = SECURITY_CLASSIFICATION_LEVEL ( 'unclassified' ) ;
#192 = AXIS2_PLACEMENT_3D ( 'NONE', #5, #158, #33 ) ;
#193 = PERSON_AND_ORGANIZATION ( #222, #113 ) ;
#194 = PRODUCT_DEFINITION_SHAPE ( 'NONE', 'NONE',  #214 ) ;
#195 = VERTEX_POINT ( 'NONE', #48 ) ;
#196 = CIRCLE ( 'NONE', #163, 12.69999999999999900 ) ;
#197 = CARTESIAN_POINT ( 'NONE',  ( 3.410605131648479900E-013, -12.85239470361205200, 0.06581210392453407100 ) ) ;
#198 = ORIENTED_EDGE ( 'NONE', *, *, #80, .T. ) ;
#199 = CC_DESIGN_PERSON_AND_ORGANIZATION_ASSIGNMENT ( #36, #89, ( #79 ) ) ;
#200 = CC_DESIGN_PERSON_AND_ORGANIZATION_ASSIGNMENT ( #193, #230, ( #118 ) ) ;
#201 = CC_DESIGN_APPROVAL ( #228, ( #214 ) ) ;
#202 = CARTESIAN_POINT ( 'NONE',  ( 3.295974604355934100E-014, -4.284281346127786900, -0.02193813493072869400 ) ) ;
#203 = CARTESIAN_POINT ( 'NONE',  ( -12.77552739254372900, 12.85239470361235800, 0.1308427368913456200 ) ) ;
#204 = DIRECTION ( 'NONE',  ( 0.0000000000000000000, 0.0000000000000000000, 1.000000000000000000 ) ) ;
#205 = APPROVAL_STATUS ( 'not_yet_approved' ) ;
#206 = LOCAL_TIME ( 14, 8, 53.00000000000000000, #12 ) ;
#207 = DESIGN_CONTEXT ( 'detailed design', #170, 'design' ) ;
#208 = CARTESIAN_POINT ( 'NONE',  ( 12.69999999999999900, 2.442490654175340100E-015, 3.100000000000000500 ) ) ;
#209 = FACE_OUTER_BOUND ( 'NONE', #15, .T. ) ;
#210 = APPROVAL_ROLE ( '' ) ;
#211 = APPROVAL ( #205, 'UNSPECIFIED' ) ;
#212 = EDGE_CURVE ( 'NONE', #195, #175, #235, .T. ) ;
#213 = APPROVAL_PERSON_ORGANIZATION ( #27, #211, #46 ) ;
#214 = PRODUCT_DEFINITION ( 'UNKNOWN', '', #118, #207 ) ;
#215 = ORIENTED_EDGE ( 'NONE', *, *, #135, .F. ) ;
#216 = VERTEX_POINT ( 'NONE', #208 ) ;
#217 = CYLINDRICAL_SURFACE ( 'NONE', #39, 12.69999999999999900 ) ;
#218 = CYLINDRICAL_SURFACE ( 'NONE', #179, 12.69999999999999900 ) ;
#219 = CARTESIAN_POINT ( 'NONE',  ( 12.77552739254383600, 12.85239470361235800, 0.1308427368912522000 ) ) ;
#220 = CIRCLE ( 'NONE', #17, 12.69999999999999900 ) ;
#221 = DIRECTION ( 'NONE',  ( 1.000000000000000000, 0.0000000000000000000, 0.0000000000000000000 ) ) ;
#222 = PERSON ( 'UNSPECIFIED', 'UNSPECIFIED', 'UNSPECIFIED', ('UNSPECIFIED'), ('UNSPECIFIED'), ('UNSPECIFIED') ) ;
#223 = DIRECTION ( 'NONE',  ( -0.0000000000000000000, -0.0000000000000000000, -1.000000000000000000 ) ) ;
#224 = CC_DESIGN_APPROVAL ( #171, ( #118 ) ) ;
#225 = CARTESIAN_POINT ( 'NONE',  ( -8.517146991877560000, -12.85239470361205100, 0.08748916879884627300 ) ) ;
#226 = CARTESIAN_POINT ( 'NONE',  ( -4.258601081181923000, 12.85239470361235600, 0.06581210392466700600 ) ) ;
#227 = CARTESIAN_POINT ( 'NONE',  ( -12.69999999999999900, 3.997792089092478900E-015, 0.06426060933303330600 ) ) ;
#228 = APPROVAL ( #67, 'UNSPECIFIED' ) ;
#229 = ORIENTED_EDGE ( 'NONE', *, *, #66, .T. ) ;
#230 = PERSON_AND_ORGANIZATION_ROLE ( 'design_supplier' ) ;
#231 = DATE_AND_TIME ( #8, #234 ) ;
#232 = CC_DESIGN_APPROVAL ( #211, ( #29 ) ) ;
#233 = CARTESIAN_POINT ( 'NONE',  ( 3.410605131648479900E-013, -4.284281346127786900, -0.02193813493086057100 ) ) ;
#234 = LOCAL_TIME ( 14, 8, 53.00000000000000000, #95 ) ;
#235 = CIRCLE ( 'NONE', #54, 12.69999999999999900 ) ;
ENDSEC;
END-ISO-10303-21;
