ISO-10303-21;
HEADER;
FILE_DESCRIPTION (( 'STEP AP203' ),
    '1' );
FILE_NAME ('110-5240E CaF2 pl-cx 25.4 F2000.STEP',
    '2019-01-03T11:59:22',
    ( '' ),
    ( '' ),
    'SwSTEP 2.0',
    'SolidWorks 2017',
    '' );
FILE_SCHEMA (( 'CONFIG_CONTROL_DESIGN' ));
ENDSEC;

DATA;
#1 = CARTESIAN_POINT ( 'NONE',  ( 4.258435630358706100, -12.85238807776001700, 0.09874096179263158700 ) ) ;
#2 = CARTESIAN_POINT ( 'NONE',  ( 12.77669683466310800, -4.284466519918775700, 0.06466120920274630300 ) ) ;
#3 = VECTOR ( 'NONE', #223, 1000.000000000000000 ) ;
#4 = CARTESIAN_POINT ( 'NONE',  ( 0.0000000000000000000, -12.85238807776001800, 0.09874096179263158700 ) ) ;
#5 = CC_DESIGN_SECURITY_CLASSIFICATION ( #193, ( #108 ) ) ;
#6 = DIRECTION ( 'NONE',  ( 0.0000000000000000000, 0.0000000000000000000, 1.000000000000000000 ) ) ;
#7 = ADVANCED_FACE ( 'NONE', ( #57 ), #130, .T. ) ;
#8 = CARTESIAN_POINT ( 'NONE',  ( 4.996003610813200500E-016, 2.442490654175340100E-015, 0.09641320711685889800 ) ) ;
#9 = PERSON_AND_ORGANIZATION ( #54, #117 ) ;
#10 = DIRECTION ( 'NONE',  ( -0.0000000000000000000, -0.0000000000000000000, -1.000000000000000000 ) ) ;
#11 = APPLICATION_PROTOCOL_DEFINITION ( 'international standard', 'config_control_design', 1994, #84 ) ;
#12 =( LENGTH_UNIT ( ) NAMED_UNIT ( * ) SI_UNIT ( .MILLI., .METRE. ) );
#13 = PERSON_AND_ORGANIZATION ( #54, #117 ) ;
#14 = APPROVAL_STATUS ( 'not_yet_approved' ) ;
#15 = ORIENTED_EDGE ( 'NONE', *, *, #194, .F. ) ;
#16 = EDGE_CURVE ( 'NONE', #188, #42, #103, .T. ) ;
#17 = ADVANCED_BREP_SHAPE_REPRESENTATION ( '110-5240E CaF2 pl-cx 25.4 F2000', ( #59, #139 ), #100 ) ;
#18 = EDGE_LOOP ( 'NONE', ( #144, #158, #29, #64, #181 ) ) ;
#19 = APPROVAL_PERSON_ORGANIZATION ( #95, #146, #229 ) ;
#20 = CARTESIAN_POINT ( 'NONE',  ( 12.77468598228082900, 12.85238807775998600, 0.1963030580622101600 ) ) ;
#21 = CARTESIAN_POINT ( 'NONE',  ( 4.259105947065040500, 4.284466519918742800, -0.03291624423286924900 ) ) ;
#22 = EDGE_LOOP ( 'NONE', ( #74, #24 ) ) ;
#23 = CARTESIAN_POINT ( 'NONE',  ( -8.518087691375035000, -4.284466519918773900, -0.0003897940700318008400 ) ) ;
#24 = ORIENTED_EDGE ( 'NONE', *, *, #131, .F. ) ;
#25 = CARTESIAN_POINT ( 'NONE',  ( -12.69999999999999900, 3.997792089092478900E-015, 0.09641320711685889800 ) ) ;
#26 = CARTESIAN_POINT ( 'NONE',  ( -2.081668171172168500E-013, -12.85238807776001800, 0.09874096179266060600 ) ) ;
#27 = APPROVAL_STATUS ( 'not_yet_approved' ) ;
#28 = ADVANCED_FACE ( 'NONE', ( #215 ), #198, .T. ) ;
#29 = ORIENTED_EDGE ( 'NONE', *, *, #131, .T. ) ;
#30 = PERSON_AND_ORGANIZATION_ROLE ( 'classification_officer' ) ;
#31 = VERTEX_POINT ( 'NONE', #58 ) ;
#32 = EDGE_CURVE ( 'NONE', #42, #31, #90, .T. ) ;
#33 = FACE_OUTER_BOUND ( 'NONE', #221, .T. ) ;
#34 = SHAPE_DEFINITION_REPRESENTATION ( #114, #17 ) ;
#35 = ORIENTED_EDGE ( 'NONE', *, *, #56, .T. ) ;
#36 = CARTESIAN_POINT ( 'NONE',  ( 12.77468598228082900, -12.85238807776001800, 0.1963030580622101600 ) ) ;
#37 = DIRECTION ( 'NONE',  ( 1.000000000000000000, 0.0000000000000000000, 0.0000000000000000000 ) ) ;
#38 = EDGE_CURVE ( 'NONE', #31, #85, #138, .T. ) ;
#39 = DIRECTION ( 'NONE',  ( 1.000000000000000000, 0.0000000000000000000, 0.0000000000000000000 ) ) ;
#40 = CARTESIAN_POINT ( 'NONE',  ( -2.064320936412400700E-013, -4.284466519918775700, -0.03291624423284050100 ) ) ;
#41 = CALENDAR_DATE ( 2019, 3, 1 ) ;
#42 = VERTEX_POINT ( 'NONE', #201 ) ;
#43 = EDGE_CURVE ( 'NONE', #92, #76, #52, .T. ) ;
#44 = DIRECTION ( 'NONE',  ( 1.000000000000000000, 0.0000000000000000000, -0.0000000000000000000 ) ) ;
#45 = DIRECTION ( 'NONE',  ( 1.000000000000000000, 0.0000000000000000000, 0.0000000000000000000 ) ) ;
#46 = CIRCLE ( 'NONE', #157, 12.69999999999999900 ) ;
#47 = LOCAL_TIME ( 13, 59, 22.00000000000000000, #99 ) ;
#48 = CARTESIAN_POINT ( 'NONE',  ( -8.518087691375035000, 4.284466519918742800, -0.0003897940700315027900 ) ) ;
#49 = APPROVAL_DATE_TIME ( #216, #146 ) ;
#50 = APPLICATION_CONTEXT ( 'configuration controlled 3d designs of mechanical parts and assemblies' ) ;
#51 = AXIS2_PLACEMENT_3D ( 'NONE', #171, #6, #44 ) ;
#52 = CIRCLE ( 'NONE', #83, 12.69999999999999900 ) ;
#53 = CC_DESIGN_APPROVAL ( #104, ( #108 ) ) ;
#54 = PERSON ( 'UNSPECIFIED', 'UNSPECIFIED', 'UNSPECIFIED', ('UNSPECIFIED'), ('UNSPECIFIED'), ('UNSPECIFIED') ) ;
#55 = DATE_AND_TIME ( #147, #218 ) ;
#56 = EDGE_CURVE ( 'NONE', #42, #92, #166, .T. ) ;
#57 = FACE_OUTER_BOUND ( 'NONE', #113, .T. ) ;
#58 = CARTESIAN_POINT ( 'NONE',  ( 12.69999999999999900, 2.442490654175340100E-015, 3.100000000000000500 ) ) ;
#59 = MANIFOLD_SOLID_BREP ( 'Imported1', #135 ) ;
#60 = CYLINDRICAL_SURFACE ( 'NONE', #145, 12.69999999999999900 ) ;
#61 = LOCAL_TIME ( 13, 59, 22.00000000000000000, #196 ) ;
#62 = CARTESIAN_POINT ( 'NONE',  ( -12.77669683466321600, 4.284466519918744600, 0.06466120920271140000 ) ) ;
#63 = CARTESIAN_POINT ( 'NONE',  ( 4.996003610813200500E-016, 2.442490654175340100E-015, 0.09641320711685889800 ) ) ;
#64 = ORIENTED_EDGE ( 'NONE', *, *, #32, .F. ) ;
#65 = CARTESIAN_POINT ( 'NONE',  ( 0.0000000000000000000, 0.0000000000000000000, 836.5000000000000000 ) ) ;
#66 = CARTESIAN_POINT ( 'NONE',  ( 4.996003610813200500E-016, 2.442490654175340100E-015, 3.100000000000000500 ) ) ;
#67 = CC_DESIGN_PERSON_AND_ORGANIZATION_ASSIGNMENT ( #9, #231, ( #108 ) ) ;
#68 = APPLICATION_PROTOCOL_DEFINITION ( 'international standard', 'config_control_design', 1994, #50 ) ;
#69 =( NAMED_UNIT ( * ) SI_UNIT ( $, .STERADIAN. ) SOLID_ANGLE_UNIT ( ) );
#70 = APPROVAL_ROLE ( '' ) ;
#71 = APPROVAL_STATUS ( 'not_yet_approved' ) ;
#72 = ORIENTED_EDGE ( 'NONE', *, *, #212, .T. ) ;
#73 = ORIENTED_EDGE ( 'NONE', *, *, #56, .F. ) ;
#74 = ORIENTED_EDGE ( 'NONE', *, *, #38, .F. ) ;
#75 = CARTESIAN_POINT ( 'NONE',  ( 8.516747077509796400, 12.85238807775998600, 0.1312622928006366400 ) ) ;
#76 = VERTEX_POINT ( 'NONE', #82 ) ;
#77 = CARTESIAN_POINT ( 'NONE',  ( 4.259105947065040500, -4.284466519918773900, -0.03291624423286957500 ) ) ;
#78 = CARTESIAN_POINT ( 'NONE',  ( -12.77468598228093600, -12.85238807776001800, 0.1963030580621749600 ) ) ;
#79 = CIRCLE ( 'NONE', #234, 12.69999999999999900 ) ;
#80 = CARTESIAN_POINT ( 'NONE',  ( 0.0000000000000000000, -12.69999999999524600, 0.09641320711685000300 ) ) ;
#81 = ORIENTED_EDGE ( 'NONE', *, *, #43, .T. ) ;
#82 = CARTESIAN_POINT ( 'NONE',  ( -12.69999999999999900, 3.997792089092478900E-015, 0.09641320711685889800 ) ) ;
#83 = AXIS2_PLACEMENT_3D ( 'NONE', #8, #186, #45 ) ;
#84 = APPLICATION_CONTEXT ( 'configuration controlled 3d designs of mechanical parts and assemblies' ) ;
#85 = VERTEX_POINT ( 'NONE', #169 ) ;
#86 = APPROVAL_DATE_TIME ( #179, #104 ) ;
#87 = DIRECTION ( 'NONE',  ( 1.000000000000000000, 0.0000000000000000000, 0.0000000000000000000 ) ) ;
#88 = CC_DESIGN_PERSON_AND_ORGANIZATION_ASSIGNMENT ( #182, #30, ( #193 ) ) ;
#89 = PERSON_AND_ORGANIZATION_ROLE ( 'creator' ) ;
#90 = LINE ( 'NONE', #197, #142 ) ;
#91 = PERSON_AND_ORGANIZATION ( #54, #117 ) ;
#92 = VERTEX_POINT ( 'NONE', #80 ) ;
#93 = FACE_OUTER_BOUND ( 'NONE', #22, .T. ) ;
#94 = DIRECTION ( 'NONE',  ( 0.0000000000000000000, 0.0000000000000000000, 1.000000000000000000 ) ) ;
#95 = PERSON_AND_ORGANIZATION ( #54, #117 ) ;
#96 = CARTESIAN_POINT ( 'NONE',  ( 0.0000000000000000000, 12.85238807775998600, 0.09874096179263158700 ) ) ;
#97 = CARTESIAN_POINT ( 'NONE',  ( -12.77669683466321600, -4.284466519918775700, 0.06466120920271110900 ) ) ;
#98 = COORDINATED_UNIVERSAL_TIME_OFFSET ( 2, 0, .AHEAD. ) ;
#99 = COORDINATED_UNIVERSAL_TIME_OFFSET ( 2, 0, .AHEAD. ) ;
#100 =( GEOMETRIC_REPRESENTATION_CONTEXT ( 3 ) GLOBAL_UNCERTAINTY_ASSIGNED_CONTEXT ( ( #112 ) ) GLOBAL_UNIT_ASSIGNED_CONTEXT ( ( #12, #156, #69 ) ) REPRESENTATION_CONTEXT ( 'NONE', 'WORKASPACE' ) );
#101 = DIRECTION ( 'NONE',  ( 0.0000000000000000000, 0.0000000000000000000, 1.000000000000000000 ) ) ;
#102 = CARTESIAN_POINT ( 'NONE',  ( -4.258435630358880200, -12.85238807776001700, 0.09874096179266166100 ) ) ;
#103 = CIRCLE ( 'NONE', #161, 12.69999999999999900 ) ;
#104 = APPROVAL ( #27, 'UNSPECIFIED' ) ;
#105 = PERSON_AND_ORGANIZATION_ROLE ( 'creator' ) ;
#106 = PERSON_AND_ORGANIZATION ( #54, #117 ) ;
#107 = CARTESIAN_POINT ( 'NONE',  ( -12.77468598228093600, 12.85238807775998600, 0.1963030580621749600 ) ) ;
#108 = PRODUCT_DEFINITION_FORMATION_WITH_SPECIFIED_SOURCE ( 'ANY', '', #233, .NOT_KNOWN. ) ;
#109 = EDGE_LOOP ( 'NONE', ( #160, #195, #73, #204, #178 ) ) ;
#110 = PERSON_AND_ORGANIZATION ( #54, #117 ) ;
#111 = DESIGN_CONTEXT ( 'detailed design', #84, 'design' ) ;
#112 = UNCERTAINTY_MEASURE_WITH_UNIT (LENGTH_MEASURE( 1.000000000000000100E-005 ), #12, 'distance_accuracy_value', 'NONE');
#113 = EDGE_LOOP ( 'NONE', ( #35, #122, #232 ) ) ;
#114 = PRODUCT_DEFINITION_SHAPE ( 'NONE', 'NONE',  #165 ) ;
#115 = CARTESIAN_POINT ( 'NONE',  ( 4.996003610813200500E-016, 2.442490654175340100E-015, 0.09641320711685889800 ) ) ;
#116 = CC_DESIGN_PERSON_AND_ORGANIZATION_ASSIGNMENT ( #110, #89, ( #108 ) ) ;
#117 = ORGANIZATION ( 'UNSPECIFIED', 'UNSPECIFIED', '' ) ;
#118 = EDGE_CURVE ( 'NONE', #76, #85, #210, .T. ) ;
#119 = DIRECTION ( 'NONE',  ( 1.000000000000000000, 0.0000000000000000000, 0.0000000000000000000 ) ) ;
#120 = APPROVAL ( #14, 'UNSPECIFIED' ) ;
#121 = DIRECTION ( 'NONE',  ( 0.0000000000000000000, -1.000000000000000000, -2.654448355350045800E-016 ) ) ;
#122 = ORIENTED_EDGE ( 'NONE', *, *, #194, .T. ) ;
#123 = DIRECTION ( 'NONE',  ( -0.0000000000000000000, -0.0000000000000000000, -1.000000000000000000 ) ) ;
#124 = AXIS2_PLACEMENT_3D ( 'NONE', #115, #164, #39 ) ;
#125 = CARTESIAN_POINT ( 'NONE',  ( 4.996003610813200500E-016, 2.442490654175340100E-015, 0.09641320711685889800 ) ) ;
#126 = CIRCLE ( 'NONE', #133, 836.4999999999998900 ) ;
#127 = CALENDAR_DATE ( 2019, 3, 1 ) ;
#128 = DATE_TIME_ROLE ( 'creation_date' ) ;
#129 = COORDINATED_UNIVERSAL_TIME_OFFSET ( 2, 0, .AHEAD. ) ;
#130 =( BOUNDED_SURFACE ( )  B_SPLINE_SURFACE ( 3, 3, ( 
 ( #4, #1, #219, #36 ),
 ( #162, #77, #220, #2 ),
 ( #180, #21, #163, #150 ),
 ( #96, #199, #75, #20 ) ),
 .UNSPECIFIED., .F., .F., .F. ) 
 B_SPLINE_SURFACE_WITH_KNOTS ( ( 4, 4 ),
 ( 4, 4 ),
 ( 0.0000000000000000000, 1.000000000000000000 ),
 ( 0.0000000000000000000, 1.000000000000000000 ),
 .UNSPECIFIED. ) 
 GEOMETRIC_REPRESENTATION_ITEM ( )  RATIONAL_B_SPLINE_SURFACE ( (
 ( 1.000000000000000000, 0.9999805588689690800, 0.9999805588689690800, 1.000000000000000000),
 ( 0.9999213062667522400, 0.9999018666656165300, 0.9999018666656165300, 0.9999213062667522400),
 ( 0.9999213062667522400, 0.9999018666656165300, 0.9999018666656165300, 0.9999213062667522400),
 ( 1.000000000000000000, 0.9999805588689690800, 0.9999805588689690800, 1.000000000000000000) ) ) 
 REPRESENTATION_ITEM ( '' )  SURFACE ( )  );
#131 = EDGE_CURVE ( 'NONE', #85, #31, #46, .T. ) ;
#132 = APPROVAL_DATE_TIME ( #151, #120 ) ;
#133 = AXIS2_PLACEMENT_3D ( 'NONE', #65, #119, #121 ) ;
#134 = CARTESIAN_POINT ( 'NONE',  ( 4.996003610813200500E-016, 2.442490654175340100E-015, 0.09641320711685889800 ) ) ;
#135 = CLOSED_SHELL ( 'NONE', ( #7, #28, #227, #206, #168 ) ) ;
#136 = CC_DESIGN_DATE_AND_TIME_ASSIGNMENT ( #55, #128, ( #165 ) ) ;
#137 = DIRECTION ( 'NONE',  ( 1.000000000000000000, 0.0000000000000000000, 0.0000000000000000000 ) ) ;
#138 = CIRCLE ( 'NONE', #175, 12.69999999999999900 ) ;
#139 = AXIS2_PLACEMENT_3D ( 'NONE', #213, #191, #87 ) ;
#140 = CARTESIAN_POINT ( 'NONE',  ( 4.996003610813200500E-016, 2.442490654175340100E-015, 0.09641320711685889800 ) ) ;
#141 = DIRECTION ( 'NONE',  ( 1.000000000000000000, 0.0000000000000000000, 0.0000000000000000000 ) ) ;
#142 = VECTOR ( 'NONE', #94, 1000.000000000000000 ) ;
#143 = LOCAL_TIME ( 13, 59, 22.00000000000000000, #177 ) ;
#144 = ORIENTED_EDGE ( 'NONE', *, *, #212, .F. ) ;
#145 = AXIS2_PLACEMENT_3D ( 'NONE', #63, #101, #187 ) ;
#146 = APPROVAL ( #71, 'UNSPECIFIED' ) ;
#147 = CALENDAR_DATE ( 2019, 3, 1 ) ;
#148 = CC_DESIGN_PERSON_AND_ORGANIZATION_ASSIGNMENT ( #13, #209, ( #233 ) ) ;
#149 = DIRECTION ( 'NONE',  ( -0.0000000000000000000, -0.0000000000000000000, -1.000000000000000000 ) ) ;
#150 = CARTESIAN_POINT ( 'NONE',  ( 12.77669683466310800, 4.284466519918744600, 0.06466120920274662200 ) ) ;
#151 = DATE_AND_TIME ( #170, #143 ) ;
#152 = CARTESIAN_POINT ( 'NONE',  ( -4.259105947065213700, -4.284466519918773900, -0.03291624423283945300 ) ) ;
#153 = CARTESIAN_POINT ( 'NONE',  ( 0.0000000000000000000, 12.69999999999524900, 0.09641320711685000300 ) ) ;
#154 = CARTESIAN_POINT ( 'NONE',  ( -8.516747077509938500, 12.85238807775998600, 0.1312622928006013900 ) ) ;
#155 = FACE_OUTER_BOUND ( 'NONE', #109, .T. ) ;
#156 =( NAMED_UNIT ( * ) PLANE_ANGLE_UNIT ( ) SI_UNIT ( $, .RADIAN. ) );
#157 = AXIS2_PLACEMENT_3D ( 'NONE', #222, #185, #202 ) ;
#158 = ORIENTED_EDGE ( 'NONE', *, *, #118, .T. ) ;
#159 = DATE_AND_TIME ( #205, #47 ) ;
#160 = ORIENTED_EDGE ( 'NONE', *, *, #118, .F. ) ;
#161 = AXIS2_PLACEMENT_3D ( 'NONE', #134, #149, #37 ) ;
#162 = CARTESIAN_POINT ( 'NONE',  ( 0.0000000000000000000, -4.284466519918775700, -0.03291624423286957500 ) ) ;
#163 = CARTESIAN_POINT ( 'NONE',  ( 8.518087691374892900, 4.284466519918742800, -0.0003897940699962526100 ) ) ;
#164 = DIRECTION ( 'NONE',  ( 0.0000000000000000000, 0.0000000000000000000, 1.000000000000000000 ) ) ;
#165 = PRODUCT_DEFINITION ( 'UNKNOWN', '', #108, #111 ) ;
#166 = CIRCLE ( 'NONE', #183, 12.69999999999999900 ) ;
#167 = CARTESIAN_POINT ( 'NONE',  ( -8.516747077509938500, -12.85238807776001700, 0.1312622928006013900 ) ) ;
#168 = ADVANCED_FACE ( 'NONE', ( #93 ), #225, .T. ) ;
#169 = CARTESIAN_POINT ( 'NONE',  ( -12.69999999999999900, 3.997792089092478900E-015, 3.100000000000000500 ) ) ;
#170 = CALENDAR_DATE ( 2019, 3, 1 ) ;
#171 = CARTESIAN_POINT ( 'NONE',  ( 0.0000000000000000000, 26.11199999999999800, 3.100000000000000500 ) ) ;
#172 = CARTESIAN_POINT ( 'NONE',  ( -4.259105947065213700, 4.284466519918742800, -0.03291624423283918300 ) ) ;
#173 = CC_DESIGN_DATE_AND_TIME_ASSIGNMENT ( #159, #211, ( #193 ) ) ;
#174 = APPROVAL_ROLE ( '' ) ;
#175 = AXIS2_PLACEMENT_3D ( 'NONE', #66, #123, #203 ) ;
#176 = MECHANICAL_CONTEXT ( 'NONE', #50, 'mechanical' ) ;
#177 = COORDINATED_UNIVERSAL_TIME_OFFSET ( 2, 0, .AHEAD. ) ;
#178 = ORIENTED_EDGE ( 'NONE', *, *, #38, .T. ) ;
#179 = DATE_AND_TIME ( #41, #184 ) ;
#180 = CARTESIAN_POINT ( 'NONE',  ( 0.0000000000000000000, 4.284466519918744600, -0.03291624423286924900 ) ) ;
#181 = ORIENTED_EDGE ( 'NONE', *, *, #16, .F. ) ;
#182 = PERSON_AND_ORGANIZATION ( #54, #117 ) ;
#183 = AXIS2_PLACEMENT_3D ( 'NONE', #140, #207, #141 ) ;
#184 = LOCAL_TIME ( 13, 59, 22.00000000000000000, #98 ) ;
#185 = DIRECTION ( 'NONE',  ( -0.0000000000000000000, -0.0000000000000000000, -1.000000000000000000 ) ) ;
#186 = DIRECTION ( 'NONE',  ( -0.0000000000000000000, -0.0000000000000000000, -1.000000000000000000 ) ) ;
#187 = DIRECTION ( 'NONE',  ( 1.000000000000000000, 0.0000000000000000000, 0.0000000000000000000 ) ) ;
#188 = VERTEX_POINT ( 'NONE', #153 ) ;
#189 = CARTESIAN_POINT ( 'NONE',  ( -2.064320936412400700E-013, 4.284466519918744600, -0.03291624423284023000 ) ) ;
#190 =( BOUNDED_SURFACE ( )  B_SPLINE_SURFACE ( 3, 3, ( 
 ( #78, #167, #102, #26 ),
 ( #97, #23, #152, #40 ),
 ( #62, #48, #172, #189 ),
 ( #107, #154, #230, #228 ) ),
 .UNSPECIFIED., .F., .F., .T. ) 
 B_SPLINE_SURFACE_WITH_KNOTS ( ( 4, 4 ),
 ( 4, 4 ),
 ( 0.0000000000000000000, 1.000000000000000000 ),
 ( 0.0000000000000000000, 1.000000000000000000 ),
 .UNSPECIFIED. ) 
 GEOMETRIC_REPRESENTATION_ITEM ( )  RATIONAL_B_SPLINE_SURFACE ( (
 ( 1.000000000000000000, 0.9999805588689690800, 0.9999805588689690800, 1.000000000000000000),
 ( 0.9999213062667522400, 0.9999018666656165300, 0.9999018666656165300, 0.9999213062667522400),
 ( 0.9999213062667522400, 0.9999018666656165300, 0.9999018666656165300, 0.9999213062667522400),
 ( 1.000000000000000000, 0.9999805588689690800, 0.9999805588689690800, 1.000000000000000000) ) ) 
 REPRESENTATION_ITEM ( '' )  SURFACE ( )  );
#191 = DIRECTION ( 'NONE',  ( 0.0000000000000000000, 0.0000000000000000000, 1.000000000000000000 ) ) ;
#192 = APPROVAL_PERSON_ORGANIZATION ( #91, #104, #70 ) ;
#193 = SECURITY_CLASSIFICATION ( '', '', #208 ) ;
#194 = EDGE_CURVE ( 'NONE', #92, #188, #126, .T. ) ;
#195 = ORIENTED_EDGE ( 'NONE', *, *, #43, .F. ) ;
#196 = COORDINATED_UNIVERSAL_TIME_OFFSET ( 2, 0, .AHEAD. ) ;
#197 = CARTESIAN_POINT ( 'NONE',  ( 12.69999999999999900, 2.442490654175340100E-015, 0.09641320711685889800 ) ) ;
#198 = CYLINDRICAL_SURFACE ( 'NONE', #124, 12.69999999999999900 ) ;
#199 = CARTESIAN_POINT ( 'NONE',  ( 4.258435630358706100, 12.85238807775998600, 0.09874096179263158700 ) ) ;
#200 = PERSON_AND_ORGANIZATION ( #54, #117 ) ;
#201 = CARTESIAN_POINT ( 'NONE',  ( 12.69999999999999900, 2.442490654175340100E-015, 0.09641320711685889800 ) ) ;
#202 = DIRECTION ( 'NONE',  ( 1.000000000000000000, 0.0000000000000000000, 0.0000000000000000000 ) ) ;
#203 = DIRECTION ( 'NONE',  ( 1.000000000000000000, 0.0000000000000000000, 0.0000000000000000000 ) ) ;
#204 = ORIENTED_EDGE ( 'NONE', *, *, #32, .T. ) ;
#205 = CALENDAR_DATE ( 2019, 3, 1 ) ;
#206 = ADVANCED_FACE ( 'NONE', ( #155 ), #60, .T. ) ;
#207 = DIRECTION ( 'NONE',  ( -0.0000000000000000000, -0.0000000000000000000, -1.000000000000000000 ) ) ;
#208 = SECURITY_CLASSIFICATION_LEVEL ( 'unclassified' ) ;
#209 = PERSON_AND_ORGANIZATION_ROLE ( 'design_owner' ) ;
#210 = LINE ( 'NONE', #25, #3 ) ;
#211 = DATE_TIME_ROLE ( 'classification_date' ) ;
#212 = EDGE_CURVE ( 'NONE', #76, #188, #79, .T. ) ;
#213 = CARTESIAN_POINT ( 'NONE',  ( 0.0000000000000000000, 0.0000000000000000000, 0.0000000000000000000 ) ) ;
#214 = CC_DESIGN_APPROVAL ( #120, ( #165 ) ) ;
#215 = FACE_OUTER_BOUND ( 'NONE', #18, .T. ) ;
#216 = DATE_AND_TIME ( #127, #61 ) ;
#217 = CC_DESIGN_APPROVAL ( #146, ( #193 ) ) ;
#218 = LOCAL_TIME ( 13, 59, 22.00000000000000000, #129 ) ;
#219 = CARTESIAN_POINT ( 'NONE',  ( 8.516747077509796400, -12.85238807776001700, 0.1312622928006366400 ) ) ;
#220 = CARTESIAN_POINT ( 'NONE',  ( 8.518087691374892900, -4.284466519918773900, -0.0003897940699965779800 ) ) ;
#221 = EDGE_LOOP ( 'NONE', ( #15, #81, #72 ) ) ;
#222 = CARTESIAN_POINT ( 'NONE',  ( 4.996003610813200500E-016, 2.442490654175340100E-015, 3.100000000000000500 ) ) ;
#223 = DIRECTION ( 'NONE',  ( 0.0000000000000000000, 0.0000000000000000000, 1.000000000000000000 ) ) ;
#224 = APPROVAL_PERSON_ORGANIZATION ( #200, #120, #174 ) ;
#225 = PLANE ( 'NONE',  #51 ) ;
#226 = CC_DESIGN_PERSON_AND_ORGANIZATION_ASSIGNMENT ( #106, #105, ( #165 ) ) ;
#227 = ADVANCED_FACE ( 'NONE', ( #33 ), #190, .T. ) ;
#228 = CARTESIAN_POINT ( 'NONE',  ( -2.081668171172168500E-013, 12.85238807775998600, 0.09874096179266060600 ) ) ;
#229 = APPROVAL_ROLE ( '' ) ;
#230 = CARTESIAN_POINT ( 'NONE',  ( -4.258435630358880200, 12.85238807775998600, 0.09874096179266166100 ) ) ;
#231 = PERSON_AND_ORGANIZATION_ROLE ( 'design_supplier' ) ;
#232 = ORIENTED_EDGE ( 'NONE', *, *, #16, .T. ) ;
#233 = PRODUCT ( '110-5240E CaF2 pl-cx 25.4 F2000', '110-5240E CaF2 pl-cx 25.4 F2000', '', ( #176 ) ) ;
#234 = AXIS2_PLACEMENT_3D ( 'NONE', #125, #10, #137 ) ;
#235 = PRODUCT_RELATED_PRODUCT_CATEGORY ( 'detail', '', ( #233 ) ) ;
ENDSEC;
END-ISO-10303-21;
