ISO-10303-21;
HEADER;
FILE_DESCRIPTION (( 'STEP AP203' ),
    '1' );
FILE_NAME ('110-5235E CaF2 pl-cx 25.4 F1500.STEP',
    '2019-01-03T11:47:58',
    ( '' ),
    ( '' ),
    'SwSTEP 2.0',
    'SolidWorks 2017',
    '' );
FILE_SCHEMA (( 'CONFIG_CONTROL_DESIGN' ));
ENDSEC;

DATA;
#1 = CARTESIAN_POINT ( 'NONE',  ( 4.996003610813200500E-016, 2.442490654175340100E-015, 0.1285515823313020100 ) ) ;
#2 = MECHANICAL_CONTEXT ( 'NONE', #132, 'mechanical' ) ;
#3 = LOCAL_TIME ( 13, 47, 58.00000000000000000, #44 ) ;
#4 = APPROVAL_PERSON_ORGANIZATION ( #221, #192, #83 ) ;
#5 = ORIENTED_EDGE ( 'NONE', *, *, #104, .T. ) ;
#6 = CARTESIAN_POINT ( 'NONE',  ( -5.684341886080800200E-014, -12.85237880508865000, 0.1316552231808154600 ) ) ;
#7 = CARTESIAN_POINT ( 'NONE',  ( 12.77350850845591900, -12.85237880508865000, 0.2617266986212100100 ) ) ;
#8 = ADVANCED_FACE ( 'NONE', ( #38 ), #53, .T. ) ;
#9 = CARTESIAN_POINT ( 'NONE',  ( -4.258204083369527400, -12.85237880508865000, 0.1316552231808854600 ) ) ;
#10 = CALENDAR_DATE ( 2019, 3, 1 ) ;
#11 = CIRCLE ( 'NONE', #188, 12.69999999999999900 ) ;
#12 = CARTESIAN_POINT ( 'NONE',  ( -5.684341886080800900E-014, 4.284725680238107500, -0.04389121455686723100 ) ) ;
#13 = AXIS2_PLACEMENT_3D ( 'NONE', #76, #167, #125 ) ;
#14 = CALENDAR_DATE ( 2019, 3, 1 ) ;
#15 = ORIENTED_EDGE ( 'NONE', *, *, #21, .T. ) ;
#16 = DIRECTION ( 'NONE',  ( 0.0000000000000000000, -1.000000000000000000, -7.078246889545148300E-016 ) ) ;
#17 = LINE ( 'NONE', #190, #69 ) ;
#18 = DATE_TIME_ROLE ( 'classification_date' ) ;
#19 = DIRECTION ( 'NONE',  ( 0.0000000000000000000, 0.0000000000000000000, 1.000000000000000000 ) ) ;
#20 = DIRECTION ( 'NONE',  ( 1.000000000000000000, 0.0000000000000000000, -0.0000000000000000000 ) ) ;
#21 = EDGE_CURVE ( 'NONE', #185, #165, #228, .T. ) ;
#22 = ORIENTED_EDGE ( 'NONE', *, *, #117, .T. ) ;
#23 = DATE_AND_TIME ( #95, #230 ) ;
#24 = CARTESIAN_POINT ( 'NONE',  ( 4.259395778381810200, 4.284725680238106600, -0.04389121455686723100 ) ) ;
#25 = CARTESIAN_POINT ( 'NONE',  ( 12.77708328460195600, 4.284725680238107500, 0.08621666250391033000 ) ) ;
#26 =( BOUNDED_SURFACE ( )  B_SPLINE_SURFACE ( 3, 3, ( 
 ( #71, #57, #9, #58 ),
 ( #206, #89, #225, #107 ),
 ( #63, #29, #43, #127 ),
 ( #226, #231, #59, #209 ) ),
 .UNSPECIFIED., .F., .F., .F. ) 
 B_SPLINE_SURFACE_WITH_KNOTS ( ( 4, 4 ),
 ( 4, 4 ),
 ( 0.0000000000000000000, 1.000000000000000000 ),
 ( 0.0000000000000000000, 1.000000000000000000 ),
 .UNSPECIFIED. ) 
 GEOMETRIC_REPRESENTATION_ITEM ( )  RATIONAL_B_SPLINE_SURFACE ( (
 ( 1.000000000000000000, 0.9999654388088234900, 0.9999654388088234900, 1.000000000000000000),
 ( 0.9998601049588982100, 0.9998255486026609300, 0.9998255486026609300, 0.9998601049588982100),
 ( 0.9998601049588982100, 0.9998255486026609300, 0.9998255486026609300, 0.9998601049588982100),
 ( 1.000000000000000000, 0.9999654388088234900, 0.9999654388088234900, 1.000000000000000000) ) ) 
 REPRESENTATION_ITEM ( '' )  SURFACE ( )  );
#27 = AXIS2_PLACEMENT_3D ( 'NONE', #215, #136, #174 ) ;
#28 = ORIENTED_EDGE ( 'NONE', *, *, #117, .F. ) ;
#29 = CARTESIAN_POINT ( 'NONE',  ( -8.518570742076240900, 4.284725680238106600, -0.0005204232570260684000 ) ) ;
#30 = PERSON ( 'UNSPECIFIED', 'UNSPECIFIED', 'UNSPECIFIED', ('UNSPECIFIED'), ('UNSPECIFIED'), ('UNSPECIFIED') ) ;
#31 = CARTESIAN_POINT ( 'NONE',  ( 12.69999999999999900, 2.442490654175340100E-015, 0.1285515823313020100 ) ) ;
#32 = SHAPE_DEFINITION_REPRESENTATION ( #171, #85 ) ;
#33 = FACE_OUTER_BOUND ( 'NONE', #173, .T. ) ;
#34 = CARTESIAN_POINT ( 'NONE',  ( 12.69999999999999900, 2.442490654175340100E-015, 0.1285515823313020100 ) ) ;
#35 = APPLICATION_PROTOCOL_DEFINITION ( 'international standard', 'config_control_design', 1994, #132 ) ;
#36 = CC_DESIGN_APPROVAL ( #192, ( #61 ) ) ;
#37 = APPROVAL_DATE_TIME ( #193, #138 ) ;
#38 = FACE_OUTER_BOUND ( 'NONE', #178, .T. ) ;
#39 = CC_DESIGN_PERSON_AND_ORGANIZATION_ASSIGNMENT ( #133, #191, ( #45 ) ) ;
#40 = PERSON_AND_ORGANIZATION ( #30, #41 ) ;
#41 = ORGANIZATION ( 'UNSPECIFIED', 'UNSPECIFIED', '' ) ;
#42 = CARTESIAN_POINT ( 'NONE',  ( 8.518570742075986900, 4.284725680238106600, -0.0005204232570494466200 ) ) ;
#43 = CARTESIAN_POINT ( 'NONE',  ( -4.259395778382070400, 4.284725680238106600, -0.04389121455679719600 ) ) ;
#44 = COORDINATED_UNIVERSAL_TIME_OFFSET ( 2, 0, .AHEAD. ) ;
#45 = PRODUCT_DEFINITION_FORMATION_WITH_SPECIFIED_SOURCE ( 'ANY', '', #72, .NOT_KNOWN. ) ;
#46 = APPROVAL_ROLE ( '' ) ;
#47 = DIRECTION ( 'NONE',  ( -0.0000000000000000000, -0.0000000000000000000, -1.000000000000000000 ) ) ;
#48 = COORDINATED_UNIVERSAL_TIME_OFFSET ( 2, 0, .AHEAD. ) ;
#49 = ORIENTED_EDGE ( 'NONE', *, *, #198, .T. ) ;
#50 = EDGE_LOOP ( 'NONE', ( #28, #197 ) ) ;
#51 = DIRECTION ( 'NONE',  ( 0.0000000000000000000, 0.0000000000000000000, 1.000000000000000000 ) ) ;
#52 =( NAMED_UNIT ( * ) PLANE_ANGLE_UNIT ( ) SI_UNIT ( $, .RADIAN. ) );
#53 =( BOUNDED_SURFACE ( )  B_SPLINE_SURFACE ( 3, 3, ( 
 ( #6, #120, #140, #7 ),
 ( #218, #182, #166, #105 ),
 ( #12, #24, #42, #25 ),
 ( #183, #144, #224, #203 ) ),
 .UNSPECIFIED., .F., .F., .F. ) 
 B_SPLINE_SURFACE_WITH_KNOTS ( ( 4, 4 ),
 ( 4, 4 ),
 ( 0.0000000000000000000, 1.000000000000000000 ),
 ( 0.0000000000000000000, 1.000000000000000000 ),
 .UNSPECIFIED. ) 
 GEOMETRIC_REPRESENTATION_ITEM ( )  RATIONAL_B_SPLINE_SURFACE ( (
 ( 1.000000000000000000, 0.9999654388088234900, 0.9999654388088234900, 1.000000000000000000),
 ( 0.9998601049588982100, 0.9998255486026609300, 0.9998255486026609300, 0.9998601049588982100),
 ( 0.9998601049588982100, 0.9998255486026609300, 0.9998255486026609300, 0.9998601049588982100),
 ( 1.000000000000000000, 0.9999654388088234900, 0.9999654388088234900, 1.000000000000000000) ) ) 
 REPRESENTATION_ITEM ( '' )  SURFACE ( )  );
#54 = CLOSED_SHELL ( 'NONE', ( #8, #164, #86, #142, #220 ) ) ;
#55 = LOCAL_TIME ( 13, 47, 58.00000000000000000, #186 ) ;
#56 = CC_DESIGN_APPROVAL ( #235, ( #180 ) ) ;
#57 = CARTESIAN_POINT ( 'NONE',  ( -8.516187413830758500, -12.85237880508865000, 0.1750138801878199600 ) ) ;
#58 = CARTESIAN_POINT ( 'NONE',  ( -2.116362640691704700E-013, -12.85237880508865000, 0.1316552231808844300 ) ) ;
#59 = CARTESIAN_POINT ( 'NONE',  ( -4.258204083369527400, 12.85237880508876700, 0.1316552231808854600 ) ) ;
#60 = DIRECTION ( 'NONE',  ( 1.000000000000000000, 0.0000000000000000000, 0.0000000000000000000 ) ) ;
#61 = SECURITY_CLASSIFICATION ( '', '', #234 ) ;
#62 = DIRECTION ( 'NONE',  ( 1.000000000000000000, 0.0000000000000000000, 0.0000000000000000000 ) ) ;
#63 = CARTESIAN_POINT ( 'NONE',  ( -12.77708328460219900, 4.284725680238107500, 0.08621666250393443500 ) ) ;
#64 = APPROVAL_STATUS ( 'not_yet_approved' ) ;
#65 = CARTESIAN_POINT ( 'NONE',  ( -12.69999999999999900, 3.997792089092478900E-015, 3.200000000000000200 ) ) ;
#66 = ORIENTED_EDGE ( 'NONE', *, *, #177, .T. ) ;
#67 = PRODUCT_RELATED_PRODUCT_CATEGORY ( 'detail', '', ( #72 ) ) ;
#68 = CARTESIAN_POINT ( 'NONE',  ( 4.996003610813200500E-016, 2.442490654175340100E-015, 0.1285515823313020100 ) ) ;
#69 = VECTOR ( 'NONE', #19, 1000.000000000000000 ) ;
#70 = ORIENTED_EDGE ( 'NONE', *, *, #163, .T. ) ;
#71 = CARTESIAN_POINT ( 'NONE',  ( -12.77350850845616400, -12.85237880508865000, 0.2617266986212341000 ) ) ;
#72 = PRODUCT ( '110-5235E CaF2 pl-cx 25.4 F1500', '110-5235E CaF2 pl-cx 25.4 F1500', '', ( #2 ) ) ;
#73 = CARTESIAN_POINT ( 'NONE',  ( 4.996003610813200500E-016, 2.442490654175340100E-015, 3.200000000000000200 ) ) ;
#74 = CARTESIAN_POINT ( 'NONE',  ( -5.684341886080800200E-014, 0.0000000000000000000, 627.3999999999999800 ) ) ;
#75 = DESIGN_CONTEXT ( 'detailed design', #81, 'design' ) ;
#76 = CARTESIAN_POINT ( 'NONE',  ( 4.996003610813200500E-016, 2.442490654175340100E-015, 0.1285515823313020100 ) ) ;
#77 = CC_DESIGN_PERSON_AND_ORGANIZATION_ASSIGNMENT ( #90, #158, ( #180 ) ) ;
#78 = EDGE_LOOP ( 'NONE', ( #176, #205, #15, #222, #103 ) ) ;
#79 = DIRECTION ( 'NONE',  ( 1.000000000000000000, 0.0000000000000000000, 0.0000000000000000000 ) ) ;
#80 = AXIS2_PLACEMENT_3D ( 'NONE', #74, #60, #16 ) ;
#81 = APPLICATION_CONTEXT ( 'configuration controlled 3d designs of mechanical parts and assemblies' ) ;
#82 = APPROVAL_ROLE ( '' ) ;
#83 = APPROVAL_ROLE ( '' ) ;
#84 = PERSON_AND_ORGANIZATION ( #30, #41 ) ;
#85 = ADVANCED_BREP_SHAPE_REPRESENTATION ( '110-5235E CaF2 pl-cx 25.4 F1500', ( #139, #27 ), #153 ) ;
#86 = ADVANCED_FACE ( 'NONE', ( #33 ), #26, .T. ) ;
#87 = AXIS2_PLACEMENT_3D ( 'NONE', #1, #157, #79 ) ;
#88 = CARTESIAN_POINT ( 'NONE',  ( 4.996003610813200500E-016, 2.442490654175340100E-015, 3.200000000000000200 ) ) ;
#89 = CARTESIAN_POINT ( 'NONE',  ( -8.518570742076240900, -4.284725680237991200, -0.0005204232570244692000 ) ) ;
#90 = PERSON_AND_ORGANIZATION ( #30, #41 ) ;
#91 = CYLINDRICAL_SURFACE ( 'NONE', #13, 12.69999999999999900 ) ;
#92 = CARTESIAN_POINT ( 'NONE',  ( 4.996003610813200500E-016, 2.442490654175340100E-015, 0.1285515823313020100 ) ) ;
#93 = DIRECTION ( 'NONE',  ( 0.0000000000000000000, 0.0000000000000000000, 1.000000000000000000 ) ) ;
#94 = DIRECTION ( 'NONE',  ( -0.0000000000000000000, -0.0000000000000000000, -1.000000000000000000 ) ) ;
#95 = CALENDAR_DATE ( 2019, 3, 1 ) ;
#96 = PERSON_AND_ORGANIZATION_ROLE ( 'design_supplier' ) ;
#97 = PERSON_AND_ORGANIZATION ( #30, #41 ) ;
#98 = CIRCLE ( 'NONE', #159, 12.69999999999999900 ) ;
#99 = CARTESIAN_POINT ( 'NONE',  ( 12.69999999999999900, 2.442490654175340100E-015, 3.200000000000000200 ) ) ;
#100 = PERSON_AND_ORGANIZATION ( #30, #41 ) ;
#101 = CC_DESIGN_DATE_AND_TIME_ASSIGNMENT ( #23, #18, ( #61 ) ) ;
#102 = AXIS2_PLACEMENT_3D ( 'NONE', #68, #47, #115 ) ;
#103 = ORIENTED_EDGE ( 'NONE', *, *, #149, .F. ) ;
#104 = EDGE_CURVE ( 'NONE', #201, #156, #200, .T. ) ;
#105 = CARTESIAN_POINT ( 'NONE',  ( 12.77708328460195600, -4.284725680237991200, 0.08621666250391192600 ) ) ;
#106 = CIRCLE ( 'NONE', #102, 12.69999999999999900 ) ;
#107 = CARTESIAN_POINT ( 'NONE',  ( -2.116362640691704700E-013, -4.284725680237991200, -0.04389121455679664800 ) ) ;
#108 = DIRECTION ( 'NONE',  ( 1.000000000000000000, 0.0000000000000000000, 0.0000000000000000000 ) ) ;
#109 = EDGE_CURVE ( 'NONE', #201, #162, #146, .T. ) ;
#110 = CYLINDRICAL_SURFACE ( 'NONE', #170, 12.69999999999999900 ) ;
#111 =( NAMED_UNIT ( * ) SI_UNIT ( $, .STERADIAN. ) SOLID_ANGLE_UNIT ( ) );
#112 = ORIENTED_EDGE ( 'NONE', *, *, #104, .F. ) ;
#113 = PERSON_AND_ORGANIZATION_ROLE ( 'classification_officer' ) ;
#114 = CARTESIAN_POINT ( 'NONE',  ( 0.0000000000000000000, 26.11199999999999800, 3.200000000000000200 ) ) ;
#115 = DIRECTION ( 'NONE',  ( 1.000000000000000000, 0.0000000000000000000, 0.0000000000000000000 ) ) ;
#116 = ORIENTED_EDGE ( 'NONE', *, *, #149, .T. ) ;
#117 = EDGE_CURVE ( 'NONE', #165, #185, #98, .T. ) ;
#118 = DATE_AND_TIME ( #172, #121 ) ;
#119 = ORIENTED_EDGE ( 'NONE', *, *, #163, .F. ) ;
#120 = CARTESIAN_POINT ( 'NONE',  ( 4.258204083369267100, -12.85237880508865000, 0.1316552231808154300 ) ) ;
#121 = LOCAL_TIME ( 13, 47, 58.00000000000000000, #212 ) ;
#122 = ORIENTED_EDGE ( 'NONE', *, *, #202, .F. ) ;
#123 = DIRECTION ( 'NONE',  ( 1.000000000000000000, 0.0000000000000000000, 0.0000000000000000000 ) ) ;
#124 = EDGE_LOOP ( 'NONE', ( #122, #112, #119, #49, #22 ) ) ;
#125 = DIRECTION ( 'NONE',  ( 1.000000000000000000, 0.0000000000000000000, 0.0000000000000000000 ) ) ;
#126 = AXIS2_PLACEMENT_3D ( 'NONE', #147, #94, #189 ) ;
#127 = CARTESIAN_POINT ( 'NONE',  ( -2.116362640691704700E-013, 4.284725680238107500, -0.04389121455679825100 ) ) ;
#128 = DIRECTION ( 'NONE',  ( -0.0000000000000000000, -0.0000000000000000000, -1.000000000000000000 ) ) ;
#129 = COORDINATED_UNIVERSAL_TIME_OFFSET ( 2, 0, .AHEAD. ) ;
#130 = DATE_AND_TIME ( #10, #145 ) ;
#131 = CARTESIAN_POINT ( 'NONE',  ( -5.684341886080800200E-014, -12.69999999999961700, 0.1285515823312865500 ) ) ;
#132 = APPLICATION_CONTEXT ( 'configuration controlled 3d designs of mechanical parts and assemblies' ) ;
#133 = PERSON_AND_ORGANIZATION ( #30, #41 ) ;
#134 = AXIS2_PLACEMENT_3D ( 'NONE', #114, #51, #20 ) ;
#135 = FACE_OUTER_BOUND ( 'NONE', #50, .T. ) ;
#136 = DIRECTION ( 'NONE',  ( 0.0000000000000000000, 0.0000000000000000000, 1.000000000000000000 ) ) ;
#137 = APPROVAL_PERSON_ORGANIZATION ( #97, #235, #82 ) ;
#138 = APPROVAL ( #64, 'UNSPECIFIED' ) ;
#139 = MANIFOLD_SOLID_BREP ( 'Imported1', #54 ) ;
#140 = CARTESIAN_POINT ( 'NONE',  ( 8.516187413830506300, -12.85237880508865000, 0.1750138801877965900 ) ) ;
#141 = CC_DESIGN_APPROVAL ( #138, ( #45 ) ) ;
#142 = ADVANCED_FACE ( 'NONE', ( #213 ), #91, .T. ) ;
#143 = CALENDAR_DATE ( 2019, 3, 1 ) ;
#144 = CARTESIAN_POINT ( 'NONE',  ( 4.258204083369267100, 12.85237880508876700, 0.1316552231808154300 ) ) ;
#145 = LOCAL_TIME ( 13, 47, 58.00000000000000000, #129 ) ;
#146 = CIRCLE ( 'NONE', #80, 627.3999999999999800 ) ;
#147 = CARTESIAN_POINT ( 'NONE',  ( 4.996003610813200500E-016, 2.442490654175340100E-015, 0.1285515823313020100 ) ) ;
#148 = CC_DESIGN_PERSON_AND_ORGANIZATION_ASSIGNMENT ( #199, #152, ( #72 ) ) ;
#149 = EDGE_CURVE ( 'NONE', #162, #208, #11, .T. ) ;
#150 = VECTOR ( 'NONE', #211, 1000.000000000000000 ) ;
#151 = DIRECTION ( 'NONE',  ( -0.0000000000000000000, -0.0000000000000000000, -1.000000000000000000 ) ) ;
#152 = PERSON_AND_ORGANIZATION_ROLE ( 'design_owner' ) ;
#153 =( GEOMETRIC_REPRESENTATION_CONTEXT ( 3 ) GLOBAL_UNCERTAINTY_ASSIGNED_CONTEXT ( ( #161 ) ) GLOBAL_UNIT_ASSIGNED_CONTEXT ( ( #233, #52, #111 ) ) REPRESENTATION_CONTEXT ( 'NONE', 'WORKASPACE' ) );
#154 = LINE ( 'NONE', #34, #150 ) ;
#155 = ORIENTED_EDGE ( 'NONE', *, *, #109, .T. ) ;
#156 = VERTEX_POINT ( 'NONE', #207 ) ;
#157 = DIRECTION ( 'NONE',  ( -0.0000000000000000000, -0.0000000000000000000, -1.000000000000000000 ) ) ;
#158 = PERSON_AND_ORGANIZATION_ROLE ( 'creator' ) ;
#159 = AXIS2_PLACEMENT_3D ( 'NONE', #73, #151, #108 ) ;
#160 = APPROVAL_STATUS ( 'not_yet_approved' ) ;
#161 = UNCERTAINTY_MEASURE_WITH_UNIT (LENGTH_MEASURE( 1.000000000000000100E-005 ), #233, 'distance_accuracy_value', 'NONE');
#162 = VERTEX_POINT ( 'NONE', #169 ) ;
#163 = EDGE_CURVE ( 'NONE', #208, #201, #106, .T. ) ;
#164 = ADVANCED_FACE ( 'NONE', ( #194 ), #110, .T. ) ;
#165 = VERTEX_POINT ( 'NONE', #99 ) ;
#166 = CARTESIAN_POINT ( 'NONE',  ( 8.518570742075986900, -4.284725680237991200, -0.0005204232570478475300 ) ) ;
#167 = DIRECTION ( 'NONE',  ( 0.0000000000000000000, 0.0000000000000000000, 1.000000000000000000 ) ) ;
#168 = DIRECTION ( 'NONE',  ( 1.000000000000000000, 8.881784197001252300E-016, 0.0000000000000000000 ) ) ;
#169 = CARTESIAN_POINT ( 'NONE',  ( -5.684341886080800200E-014, 12.69999999999961700, 0.1285515823312865500 ) ) ;
#170 = AXIS2_PLACEMENT_3D ( 'NONE', #92, #93, #62 ) ;
#171 = PRODUCT_DEFINITION_SHAPE ( 'NONE', 'NONE',  #180 ) ;
#172 = CALENDAR_DATE ( 2019, 3, 1 ) ;
#173 = EDGE_LOOP ( 'NONE', ( #181, #5, #66 ) ) ;
#174 = DIRECTION ( 'NONE',  ( 1.000000000000000000, 0.0000000000000000000, 0.0000000000000000000 ) ) ;
#175 = PLANE ( 'NONE',  #134 ) ;
#176 = ORIENTED_EDGE ( 'NONE', *, *, #177, .F. ) ;
#177 = EDGE_CURVE ( 'NONE', #156, #162, #187, .T. ) ;
#178 = EDGE_LOOP ( 'NONE', ( #70, #155, #116 ) ) ;
#179 = APPROVAL_DATE_TIME ( #118, #192 ) ;
#180 = PRODUCT_DEFINITION ( 'UNKNOWN', '', #45, #75 ) ;
#181 = ORIENTED_EDGE ( 'NONE', *, *, #109, .F. ) ;
#182 = CARTESIAN_POINT ( 'NONE',  ( 4.259395778381810200, -4.284725680237991200, -0.04389121455686564200 ) ) ;
#183 = CARTESIAN_POINT ( 'NONE',  ( -5.684341886080800200E-014, 12.85237880508876500, 0.1316552231808154600 ) ) ;
#184 = DATE_AND_TIME ( #14, #3 ) ;
#185 = VERTEX_POINT ( 'NONE', #65 ) ;
#186 = COORDINATED_UNIVERSAL_TIME_OFFSET ( 2, 0, .AHEAD. ) ;
#187 = CIRCLE ( 'NONE', #87, 12.69999999999999900 ) ;
#188 = AXIS2_PLACEMENT_3D ( 'NONE', #229, #128, #168 ) ;
#189 = DIRECTION ( 'NONE',  ( 1.000000000000000000, 0.0000000000000000000, 0.0000000000000000000 ) ) ;
#190 = CARTESIAN_POINT ( 'NONE',  ( -12.69999999999999900, 3.997792089092478900E-015, 0.1285515823313020100 ) ) ;
#191 = PERSON_AND_ORGANIZATION_ROLE ( 'creator' ) ;
#192 = APPROVAL ( #160, 'UNSPECIFIED' ) ;
#193 = DATE_AND_TIME ( #143, #55 ) ;
#194 = FACE_OUTER_BOUND ( 'NONE', #78, .T. ) ;
#195 = APPLICATION_PROTOCOL_DEFINITION ( 'international standard', 'config_control_design', 1994, #81 ) ;
#196 = APPROVAL_DATE_TIME ( #184, #235 ) ;
#197 = ORIENTED_EDGE ( 'NONE', *, *, #21, .F. ) ;
#198 = EDGE_CURVE ( 'NONE', #208, #165, #154, .T. ) ;
#199 = PERSON_AND_ORGANIZATION ( #30, #41 ) ;
#200 = CIRCLE ( 'NONE', #126, 12.69999999999999900 ) ;
#201 = VERTEX_POINT ( 'NONE', #131 ) ;
#202 = EDGE_CURVE ( 'NONE', #156, #185, #17, .T. ) ;
#203 = CARTESIAN_POINT ( 'NONE',  ( 12.77350850845591900, 12.85237880508876500, 0.2617266986212100100 ) ) ;
#204 = CC_DESIGN_SECURITY_CLASSIFICATION ( #61, ( #45 ) ) ;
#205 = ORIENTED_EDGE ( 'NONE', *, *, #202, .T. ) ;
#206 = CARTESIAN_POINT ( 'NONE',  ( -12.77708328460219900, -4.284725680237991200, 0.08621666250393604500 ) ) ;
#207 = CARTESIAN_POINT ( 'NONE',  ( -12.69999999999999900, 3.997792089092478900E-015, 0.1285515823313020100 ) ) ;
#208 = VERTEX_POINT ( 'NONE', #31 ) ;
#209 = CARTESIAN_POINT ( 'NONE',  ( -2.116362640691704700E-013, 12.85237880508876500, 0.1316552231808844300 ) ) ;
#210 = AXIS2_PLACEMENT_3D ( 'NONE', #88, #223, #123 ) ;
#211 = DIRECTION ( 'NONE',  ( 0.0000000000000000000, 0.0000000000000000000, 1.000000000000000000 ) ) ;
#212 = COORDINATED_UNIVERSAL_TIME_OFFSET ( 2, 0, .AHEAD. ) ;
#213 = FACE_OUTER_BOUND ( 'NONE', #124, .T. ) ;
#214 = APPROVAL_STATUS ( 'not_yet_approved' ) ;
#215 = CARTESIAN_POINT ( 'NONE',  ( 0.0000000000000000000, 0.0000000000000000000, 0.0000000000000000000 ) ) ;
#216 = CC_DESIGN_PERSON_AND_ORGANIZATION_ASSIGNMENT ( #84, #96, ( #45 ) ) ;
#217 = DATE_TIME_ROLE ( 'creation_date' ) ;
#218 = CARTESIAN_POINT ( 'NONE',  ( -5.684341886080800900E-014, -4.284725680237991200, -0.04389121455686563500 ) ) ;
#219 = CC_DESIGN_PERSON_AND_ORGANIZATION_ASSIGNMENT ( #40, #113, ( #61 ) ) ;
#220 = ADVANCED_FACE ( 'NONE', ( #135 ), #175, .T. ) ;
#221 = PERSON_AND_ORGANIZATION ( #30, #41 ) ;
#222 = ORIENTED_EDGE ( 'NONE', *, *, #198, .F. ) ;
#223 = DIRECTION ( 'NONE',  ( -0.0000000000000000000, -0.0000000000000000000, -1.000000000000000000 ) ) ;
#224 = CARTESIAN_POINT ( 'NONE',  ( 8.516187413830506300, 12.85237880508876700, 0.1750138801877965900 ) ) ;
#225 = CARTESIAN_POINT ( 'NONE',  ( -4.259395778382070400, -4.284725680237991200, -0.04389121455679560100 ) ) ;
#226 = CARTESIAN_POINT ( 'NONE',  ( -12.77350850845616400, 12.85237880508876500, 0.2617266986212341000 ) ) ;
#227 = CC_DESIGN_DATE_AND_TIME_ASSIGNMENT ( #130, #217, ( #180 ) ) ;
#228 = CIRCLE ( 'NONE', #210, 12.69999999999999900 ) ;
#229 = CARTESIAN_POINT ( 'NONE',  ( 4.996003610813200500E-016, 2.442490654175340100E-015, 0.1285515823313020100 ) ) ;
#230 = LOCAL_TIME ( 13, 47, 58.00000000000000000, #48 ) ;
#231 = CARTESIAN_POINT ( 'NONE',  ( -8.516187413830758500, 12.85237880508876700, 0.1750138801878199600 ) ) ;
#232 = APPROVAL_PERSON_ORGANIZATION ( #100, #138, #46 ) ;
#233 =( LENGTH_UNIT ( ) NAMED_UNIT ( * ) SI_UNIT ( .MILLI., .METRE. ) );
#234 = SECURITY_CLASSIFICATION_LEVEL ( 'unclassified' ) ;
#235 = APPROVAL ( #214, 'UNSPECIFIED' ) ;
ENDSEC;
END-ISO-10303-21;
