ISO-10303-21;
HEADER;
FILE_DESCRIPTION (( 'STEP AP203' ),
    '1' );
FILE_NAME ('110-5229E CaF2 pl-cx 25.4 F650.STEP',
    '2019-01-03T11:34:18',
    ( '' ),
    ( '' ),
    'SwSTEP 2.0',
    'SolidWorks 2017',
    '' );
FILE_SCHEMA (( 'CONFIG_CONTROL_DESIGN' ));
ENDSEC;

DATA;
#1 = CARTESIAN_POINT ( 'NONE',  ( 8.523351501622778800, -4.287290513477994800, -0.001217276053849483000 ) ) ;
#2 = AXIS2_PLACEMENT_3D ( 'NONE', #121, #233, #182 ) ;
#3 = ORIENTED_EDGE ( 'NONE', *, *, #155, .T. ) ;
#4 = CARTESIAN_POINT ( 'NONE',  ( -12.78090788083198800, 4.287290513477997500, 0.1990596748282433500 ) ) ;
#5 = CARTESIAN_POINT ( 'NONE',  ( -2.090568007944599000E-014, 4.287290513477995700, -0.1013834153070294200 ) ) ;
#6 = DIRECTION ( 'NONE',  ( 0.0000000000000000000, 0.0000000000000000000, 1.000000000000000000 ) ) ;
#7 = DIRECTION ( 'NONE',  ( 1.000000000000000000, 0.0000000000000000000, 0.0000000000000000000 ) ) ;
#8 = CARTESIAN_POINT ( 'NONE',  ( -9.714451465470119700E-014, -12.85228706998410100, 0.3039235977980660500 ) ) ;
#9 = PERSON_AND_ORGANIZATION_ROLE ( 'creator' ) ;
#10 = CARTESIAN_POINT ( 'NONE',  ( -2.446307682305110100E-014, -12.70000000000014900, 0.2967599604158138700 ) ) ;
#11 = PRODUCT_DEFINITION ( 'UNKNOWN', '', #180, #129 ) ;
#12 = DATE_AND_TIME ( #156, #208 ) ;
#13 = VECTOR ( 'NONE', #6, 1000.000000000000000 ) ;
#14 = VERTEX_POINT ( 'NONE', #157 ) ;
#15 = EDGE_LOOP ( 'NONE', ( #191, #154, #40 ) ) ;
#16 = COORDINATED_UNIVERSAL_TIME_OFFSET ( 2, 0, .AHEAD. ) ;
#17 = CARTESIAN_POINT ( 'NONE',  ( 4.996003610813200500E-016, 2.442490654175340100E-015, 0.2967599604157900000 ) ) ;
#18 = DIRECTION ( 'NONE',  ( -0.0000000000000000000, -0.0000000000000000000, -1.000000000000000000 ) ) ;
#19 = CARTESIAN_POINT ( 'NONE',  ( 8.523351501622780500, 4.287290513477993100, -0.001217276053847748300 ) ) ;
#20 = CARTESIAN_POINT ( 'NONE',  ( -12.76186315564379800, 12.85228706998410300, 0.6039190001681515900 ) ) ;
#21 = CC_DESIGN_APPROVAL ( #65, ( #11 ) ) ;
#22 = DIRECTION ( 'NONE',  ( -0.0000000000000000000, -0.0000000000000000000, -1.000000000000000000 ) ) ;
#23 = ADVANCED_BREP_SHAPE_REPRESENTATION ( '110-5229E CaF2 pl-cx 25.4 F650', ( #80, #100 ), #62 ) ;
#24 = CARTESIAN_POINT ( 'NONE',  ( 0.0000000000000000000, 26.11199999999999800, 3.299999999999999800 ) ) ;
#25 = APPLICATION_CONTEXT ( 'configuration controlled 3d designs of mechanical parts and assemblies' ) ;
#26 = ORIENTED_EDGE ( 'NONE', *, *, #153, .F. ) ;
#27 =( NAMED_UNIT ( * ) SI_UNIT ( $, .STERADIAN. ) SOLID_ANGLE_UNIT ( ) );
#28 = DIRECTION ( 'NONE',  ( 1.000000000000000000, 0.0000000000000000000, 0.0000000000000000000 ) ) ;
#29 = CALENDAR_DATE ( 2019, 3, 1 ) ;
#30 = SHAPE_DEFINITION_REPRESENTATION ( #44, #23 ) ;
#31 = VERTEX_POINT ( 'NONE', #82 ) ;
#32 = CARTESIAN_POINT ( 'NONE',  ( 12.76186315564387800, -12.85228706998410300, 0.6039190001681529200 ) ) ;
#33 = AXIS2_PLACEMENT_3D ( 'NONE', #160, #18, #48 ) ;
#34 = COORDINATED_UNIVERSAL_TIME_OFFSET ( 2, 0, .AHEAD. ) ;
#35 = EDGE_LOOP ( 'NONE', ( #102, #3, #164 ) ) ;
#36 = APPROVAL_ROLE ( '' ) ;
#37 = CARTESIAN_POINT ( 'NONE',  ( 4.996003610813200500E-016, 2.442490654175340100E-015, 3.299999999999999800 ) ) ;
#38 = EDGE_CURVE ( 'NONE', #31, #14, #147, .T. ) ;
#39 = DIRECTION ( 'NONE',  ( 1.000000000000000000, 0.0000000000000000000, 0.0000000000000000000 ) ) ;
#40 = ORIENTED_EDGE ( 'NONE', *, *, #38, .T. ) ;
#41 = PERSON_AND_ORGANIZATION ( #77, #124 ) ;
#42 = AXIS2_PLACEMENT_3D ( 'NONE', #24, #73, #87 ) ;
#43 = CIRCLE ( 'NONE', #2, 12.69999999999999900 ) ;
#44 = PRODUCT_DEFINITION_SHAPE ( 'NONE', 'NONE',  #11 ) ;
#45 = CC_DESIGN_APPROVAL ( #136, ( #195 ) ) ;
#46 = LOCAL_TIME ( 13, 34, 18.00000000000000000, #34 ) ;
#47 = APPROVAL_PERSON_ORGANIZATION ( #95, #50, #173 ) ;
#48 = DIRECTION ( 'NONE',  ( 1.000000000000000000, -8.881784197001252300E-016, 0.0000000000000000000 ) ) ;
#49 = ORIENTED_EDGE ( 'NONE', *, *, #51, .F. ) ;
#50 = APPROVAL ( #228, 'UNSPECIFIED' ) ;
#51 = EDGE_CURVE ( 'NONE', #67, #202, #43, .T. ) ;
#52 = ADVANCED_FACE ( 'NONE', ( #135 ), #81, .T. ) ;
#53 = DIRECTION ( 'NONE',  ( 1.000000000000000000, 0.0000000000000000000, 0.0000000000000000000 ) ) ;
#54 = LINE ( 'NONE', #101, #13 ) ;
#55 = DIRECTION ( 'NONE',  ( 0.0000000000000000000, 0.0000000000000000000, 1.000000000000000000 ) ) ;
#56 = DIRECTION ( 'NONE',  ( 1.000000000000000000, -2.137445824776170000E-016, -1.847188201756259900E-016 ) ) ;
#57 = DIRECTION ( 'NONE',  ( -0.0000000000000000000, -0.0000000000000000000, -1.000000000000000000 ) ) ;
#58 = EDGE_CURVE ( 'NONE', #14, #83, #158, .T. ) ;
#59 =( NAMED_UNIT ( * ) PLANE_ANGLE_UNIT ( ) SI_UNIT ( $, .RADIAN. ) );
#60 = ORIENTED_EDGE ( 'NONE', *, *, #38, .F. ) ;
#61 = PERSON_AND_ORGANIZATION ( #77, #124 ) ;
#62 =( GEOMETRIC_REPRESENTATION_CONTEXT ( 3 ) GLOBAL_UNCERTAINTY_ASSIGNED_CONTEXT ( ( #92 ) ) GLOBAL_UNIT_ASSIGNED_CONTEXT ( ( #207, #59, #27 ) ) REPRESENTATION_CONTEXT ( 'NONE', 'WORKASPACE' ) );
#63 = ORIENTED_EDGE ( 'NONE', *, *, #144, .F. ) ;
#64 = CALENDAR_DATE ( 2019, 3, 1 ) ;
#65 = APPROVAL ( #94, 'UNSPECIFIED' ) ;
#66 = DATE_AND_TIME ( #139, #46 ) ;
#67 = VERTEX_POINT ( 'NONE', #140 ) ;
#68 = ADVANCED_FACE ( 'NONE', ( #130 ), #212, .T. ) ;
#69 = CARTESIAN_POINT ( 'NONE',  ( 4.996003610813200500E-016, 2.442490654175340100E-015, 0.2967599604157900000 ) ) ;
#70 = COORDINATED_UNIVERSAL_TIME_OFFSET ( 2, 0, .AHEAD. ) ;
#71 = CARTESIAN_POINT ( 'NONE',  ( 4.255913160515750500, 12.85228706998409500, 0.3039235977980717700 ) ) ;
#72 = DIRECTION ( 'NONE',  ( 1.000000000000000000, 0.0000000000000000000, 0.0000000000000000000 ) ) ;
#73 = DIRECTION ( 'NONE',  ( 0.0000000000000000000, 0.0000000000000000000, 1.000000000000000000 ) ) ;
#74 = PERSON_AND_ORGANIZATION_ROLE ( 'design_supplier' ) ;
#75 = EDGE_CURVE ( 'NONE', #235, #31, #220, .T. ) ;
#76 = FACE_OUTER_BOUND ( 'NONE', #151, .T. ) ;
#77 = PERSON ( 'UNSPECIFIED', 'UNSPECIFIED', 'UNSPECIFIED', ('UNSPECIFIED'), ('UNSPECIFIED'), ('UNSPECIFIED') ) ;
#78 = PERSON_AND_ORGANIZATION ( #77, #124 ) ;
#79 = DIRECTION ( 'NONE',  ( 0.0000000000000000000, 0.0000000000000000000, 1.000000000000000000 ) ) ;
#80 = MANIFOLD_SOLID_BREP ( 'Imported1', #149 ) ;
#81 = CYLINDRICAL_SURFACE ( 'NONE', #107, 12.69999999999999900 ) ;
#82 = CARTESIAN_POINT ( 'NONE',  ( -12.69999999999999900, 3.997792089092478900E-015, 0.2967599604157900000 ) ) ;
#83 = VERTEX_POINT ( 'NONE', #217 ) ;
#84 = CARTESIAN_POINT ( 'NONE',  ( 2.842170943040400100E-014, 2.842170943040400100E-014, 271.8999999999999800 ) ) ;
#85 = CARTESIAN_POINT ( 'NONE',  ( -8.523351501622762800, 4.287290513477995700, -0.001217276053845715400 ) ) ;
#86 = CARTESIAN_POINT ( 'NONE',  ( 4.262264325355733500, 4.287290513477993900, -0.1013834153070302000 ) ) ;
#87 = DIRECTION ( 'NONE',  ( 1.000000000000000000, 0.0000000000000000000, -0.0000000000000000000 ) ) ;
#88 = SECURITY_CLASSIFICATION_LEVEL ( 'unclassified' ) ;
#89 = CC_DESIGN_APPROVAL ( #50, ( #180 ) ) ;
#90 = CIRCLE ( 'NONE', #112, 12.69999999999999900 ) ;
#91 = DATE_TIME_ROLE ( 'classification_date' ) ;
#92 = UNCERTAINTY_MEASURE_WITH_UNIT (LENGTH_MEASURE( 1.000000000000000100E-005 ), #207, 'distance_accuracy_value', 'NONE');
#93 = AXIS2_PLACEMENT_3D ( 'NONE', #69, #57, #187 ) ;
#94 = APPROVAL_STATUS ( 'not_yet_approved' ) ;
#95 = PERSON_AND_ORGANIZATION ( #77, #124 ) ;
#96 = ORIENTED_EDGE ( 'NONE', *, *, #58, .F. ) ;
#97 = CC_DESIGN_SECURITY_CLASSIFICATION ( #195, ( #180 ) ) ;
#98 = PRODUCT ( '110-5229E CaF2 pl-cx 25.4 F650', '110-5229E CaF2 pl-cx 25.4 F650', '', ( #178 ) ) ;
#99 = CIRCLE ( 'NONE', #162, 271.8999999999999800 ) ;
#100 = AXIS2_PLACEMENT_3D ( 'NONE', #148, #190, #39 ) ;
#101 = CARTESIAN_POINT ( 'NONE',  ( -12.69999999999999900, 3.997792089092478900E-015, 0.2967599604157900000 ) ) ;
#102 = ORIENTED_EDGE ( 'NONE', *, *, #210, .T. ) ;
#103 = CARTESIAN_POINT ( 'NONE',  ( -12.76186315564380500, -12.85228706998409700, 0.6039190001681515900 ) ) ;
#104 = ORIENTED_EDGE ( 'NONE', *, *, #226, .T. ) ;
#105 = AXIS2_PLACEMENT_3D ( 'NONE', #185, #126, #7 ) ;
#106 = CARTESIAN_POINT ( 'NONE',  ( -4.255913160515802900, -12.85228706998409500, 0.3039235977980680500 ) ) ;
#107 = AXIS2_PLACEMENT_3D ( 'NONE', #137, #79, #216 ) ;
#108 = CARTESIAN_POINT ( 'NONE',  ( 12.78090788083207000, 4.287290513477993100, 0.1990596748282446300 ) ) ;
#109 = CARTESIAN_POINT ( 'NONE',  ( 4.996003610813200500E-016, 2.442490654175340100E-015, 0.2967599604157900000 ) ) ;
#110 = CALENDAR_DATE ( 2019, 3, 1 ) ;
#111 = CARTESIAN_POINT ( 'NONE',  ( -8.510650926002918800, 12.85228706998409900, 0.4039404803151130900 ) ) ;
#112 = AXIS2_PLACEMENT_3D ( 'NONE', #109, #22, #72 ) ;
#113 = ORIENTED_EDGE ( 'NONE', *, *, #75, .F. ) ;
#114 = PERSON_AND_ORGANIZATION_ROLE ( 'design_owner' ) ;
#115 = DIRECTION ( 'NONE',  ( -0.0000000000000000000, -0.0000000000000000000, -1.000000000000000000 ) ) ;
#116 = COORDINATED_UNIVERSAL_TIME_OFFSET ( 2, 0, .AHEAD. ) ;
#117 = CC_DESIGN_DATE_AND_TIME_ASSIGNMENT ( #146, #203, ( #11 ) ) ;
#118 = ORIENTED_EDGE ( 'NONE', *, *, #153, .T. ) ;
#119 = CC_DESIGN_PERSON_AND_ORGANIZATION_ASSIGNMENT ( #41, #74, ( #180 ) ) ;
#120 = PERSON_AND_ORGANIZATION ( #77, #124 ) ;
#121 = CARTESIAN_POINT ( 'NONE',  ( 4.996003610813200500E-016, 2.442490654175340100E-015, 3.299999999999999800 ) ) ;
#122 = LINE ( 'NONE', #166, #232 ) ;
#123 = CARTESIAN_POINT ( 'NONE',  ( -12.78090788083199100, -4.287290513477992200, 0.1990596748282416600 ) ) ;
#124 = ORGANIZATION ( 'UNSPECIFIED', 'UNSPECIFIED', '' ) ;
#125 = CARTESIAN_POINT ( 'NONE',  ( -4.262264325355785900, -4.287290513477993100, -0.1013834153070357200 ) ) ;
#126 = DIRECTION ( 'NONE',  ( 0.0000000000000000000, 0.0000000000000000000, 1.000000000000000000 ) ) ;
#127 = CC_DESIGN_PERSON_AND_ORGANIZATION_ASSIGNMENT ( #152, #224, ( #180 ) ) ;
#128 = PLANE ( 'NONE',  #42 ) ;
#129 = DESIGN_CONTEXT ( 'detailed design', #175, 'design' ) ;
#130 = FACE_OUTER_BOUND ( 'NONE', #35, .T. ) ;
#131 = CC_DESIGN_DATE_AND_TIME_ASSIGNMENT ( #174, #91, ( #195 ) ) ;
#132 = APPROVAL_DATE_TIME ( #66, #50 ) ;
#133 = ORIENTED_EDGE ( 'NONE', *, *, #226, .F. ) ;
#134 = LOCAL_TIME ( 13, 34, 18.00000000000000000, #16 ) ;
#135 = FACE_OUTER_BOUND ( 'NONE', #209, .T. ) ;
#136 = APPROVAL ( #225, 'UNSPECIFIED' ) ;
#137 = CARTESIAN_POINT ( 'NONE',  ( 4.996003610813200500E-016, 2.442490654175340100E-015, 0.2967599604157900000 ) ) ;
#138 = ORIENTED_EDGE ( 'NONE', *, *, #144, .T. ) ;
#139 = CALENDAR_DATE ( 2019, 3, 1 ) ;
#140 = CARTESIAN_POINT ( 'NONE',  ( 12.69999999999999900, 2.442490654175340100E-015, 3.299999999999999800 ) ) ;
#141 = ADVANCED_FACE ( 'NONE', ( #231 ), #206, .T. ) ;
#142 = CARTESIAN_POINT ( 'NONE',  ( -4.255913160515795800, 12.85228706998409700, 0.3039235977980681000 ) ) ;
#143 = CARTESIAN_POINT ( 'NONE',  ( -1.900009063328368900E-014, 12.85228706998410100, 0.3039235977980725400 ) ) ;
#144 = EDGE_CURVE ( 'NONE', #83, #67, #122, .T. ) ;
#145 = CARTESIAN_POINT ( 'NONE',  ( -8.523351501622766300, -4.287290513477992200, -0.001217276053847423000 ) ) ;
#146 = DATE_AND_TIME ( #64, #168 ) ;
#147 = CIRCLE ( 'NONE', #194, 12.69999999999999900 ) ;
#148 = CARTESIAN_POINT ( 'NONE',  ( 0.0000000000000000000, 0.0000000000000000000, 0.0000000000000000000 ) ) ;
#149 = CLOSED_SHELL ( 'NONE', ( #68, #52, #141, #198, #215 ) ) ;
#150 = CYLINDRICAL_SURFACE ( 'NONE', #105, 12.69999999999999900 ) ;
#151 = EDGE_LOOP ( 'NONE', ( #26, #113, #172, #138, #213 ) ) ;
#152 = PERSON_AND_ORGANIZATION ( #77, #124 ) ;
#153 = EDGE_CURVE ( 'NONE', #31, #202, #54, .T. ) ;
#154 = ORIENTED_EDGE ( 'NONE', *, *, #75, .T. ) ;
#155 = EDGE_CURVE ( 'NONE', #235, #14, #99, .T. ) ;
#156 = CALENDAR_DATE ( 2019, 3, 1 ) ;
#157 = CARTESIAN_POINT ( 'NONE',  ( -1.903396442811956000E-014, 12.70000000000018000, 0.2967599604158138700 ) ) ;
#158 = CIRCLE ( 'NONE', #33, 12.69999999999999900 ) ;
#159 = DATE_AND_TIME ( #29, #134 ) ;
#160 = CARTESIAN_POINT ( 'NONE',  ( 4.996003610813200500E-016, 2.442490654175340100E-015, 0.2967599604157900000 ) ) ;
#161 = CARTESIAN_POINT ( 'NONE',  ( 4.255913160515746100, -12.85228706998409700, 0.3039235977980717700 ) ) ;
#162 = AXIS2_PLACEMENT_3D ( 'NONE', #84, #56, #219 ) ;
#163 = CARTESIAN_POINT ( 'NONE',  ( -2.273845032097320600E-014, -4.287290513477993900, -0.1013834153070311300 ) ) ;
#164 = ORIENTED_EDGE ( 'NONE', *, *, #58, .T. ) ;
#165 = CARTESIAN_POINT ( 'NONE',  ( -9.540979117872437800E-014, -4.287290513477994800, -0.1013834153070376400 ) ) ;
#166 = CARTESIAN_POINT ( 'NONE',  ( 12.69999999999999900, 2.442490654175340100E-015, 0.2967599604157900000 ) ) ;
#167 = CARTESIAN_POINT ( 'NONE',  ( -9.020562075079396900E-014, 12.85228706998409900, 0.3039235977980661600 ) ) ;
#168 = LOCAL_TIME ( 13, 34, 18.00000000000000000, #116 ) ;
#169 = CARTESIAN_POINT ( 'NONE',  ( 12.76186315564388400, 12.85228706998409700, 0.6039190001681529200 ) ) ;
#170 = CARTESIAN_POINT ( 'NONE',  ( 12.78090788083206800, -4.287290513477996600, 0.1990596748282429400 ) ) ;
#171 = APPLICATION_PROTOCOL_DEFINITION ( 'international standard', 'config_control_design', 1994, #25 ) ;
#172 = ORIENTED_EDGE ( 'NONE', *, *, #210, .F. ) ;
#173 = APPROVAL_ROLE ( '' ) ;
#174 = DATE_AND_TIME ( #110, #186 ) ;
#175 = APPLICATION_CONTEXT ( 'configuration controlled 3d designs of mechanical parts and assemblies' ) ;
#176 = AXIS2_PLACEMENT_3D ( 'NONE', #37, #115, #28 ) ;
#177 = PERSON_AND_ORGANIZATION_ROLE ( 'classification_officer' ) ;
#178 = MECHANICAL_CONTEXT ( 'NONE', #25, 'mechanical' ) ;
#179 = APPROVAL_DATE_TIME ( #159, #136 ) ;
#180 = PRODUCT_DEFINITION_FORMATION_WITH_SPECIFIED_SOURCE ( 'ANY', '', #98, .NOT_KNOWN. ) ;
#181 = CARTESIAN_POINT ( 'NONE',  ( -2.449430410059614500E-014, -12.85228706998409900, 0.3039235977980725400 ) ) ;
#182 = DIRECTION ( 'NONE',  ( 1.000000000000000000, 0.0000000000000000000, 0.0000000000000000000 ) ) ;
#183 = EDGE_LOOP ( 'NONE', ( #49, #133 ) ) ;
#184 = CC_DESIGN_PERSON_AND_ORGANIZATION_ASSIGNMENT ( #192, #177, ( #195 ) ) ;
#185 = CARTESIAN_POINT ( 'NONE',  ( 4.996003610813200500E-016, 2.442490654175340100E-015, 0.2967599604157900000 ) ) ;
#186 = LOCAL_TIME ( 13, 34, 18.00000000000000000, #229 ) ;
#187 = DIRECTION ( 'NONE',  ( 1.000000000000000000, 0.0000000000000000000, 0.0000000000000000000 ) ) ;
#188 = CARTESIAN_POINT ( 'NONE',  ( -4.262264325355782400, 4.287290513477994800, -0.1013834153070339600 ) ) ;
#189 = CARTESIAN_POINT ( 'NONE',  ( -9.194034422677076300E-014, 4.287290513477994800, -0.1013834153070358500 ) ) ;
#190 = DIRECTION ( 'NONE',  ( 0.0000000000000000000, 0.0000000000000000000, 1.000000000000000000 ) ) ;
#191 = ORIENTED_EDGE ( 'NONE', *, *, #155, .F. ) ;
#192 = PERSON_AND_ORGANIZATION ( #77, #124 ) ;
#193 = FACE_OUTER_BOUND ( 'NONE', #183, .T. ) ;
#194 = AXIS2_PLACEMENT_3D ( 'NONE', #17, #197, #53 ) ;
#195 = SECURITY_CLASSIFICATION ( '', '', #88 ) ;
#196 = PERSON_AND_ORGANIZATION ( #77, #124 ) ;
#197 = DIRECTION ( 'NONE',  ( -0.0000000000000000000, -0.0000000000000000000, -1.000000000000000000 ) ) ;
#198 = ADVANCED_FACE ( 'NONE', ( #76 ), #150, .T. ) ;
#199 = CARTESIAN_POINT ( 'NONE',  ( 8.510650926002940200, 12.85228706998409500, 0.4039404803151110400 ) ) ;
#200 = CARTESIAN_POINT ( 'NONE',  ( -12.69999999999999900, 3.997792089092478900E-015, 3.299999999999999800 ) ) ;
#201 = CARTESIAN_POINT ( 'NONE',  ( -8.510650926002925900, -12.85228706998409400, 0.4039404803151130400 ) ) ;
#202 = VERTEX_POINT ( 'NONE', #200 ) ;
#203 = DATE_TIME_ROLE ( 'creation_date' ) ;
#204 = PRODUCT_RELATED_PRODUCT_CATEGORY ( 'detail', '', ( #98 ) ) ;
#205 = APPLICATION_PROTOCOL_DEFINITION ( 'international standard', 'config_control_design', 1994, #175 ) ;
#206 =( BOUNDED_SURFACE ( )  B_SPLINE_SURFACE ( 3, 3, ( 
 ( #103, #201, #106, #8 ),
 ( #123, #145, #125, #165 ),
 ( #4, #85, #188, #189 ),
 ( #20, #111, #142, #167 ) ),
 .UNSPECIFIED., .F., .F., .T. ) 
 B_SPLINE_SURFACE_WITH_KNOTS ( ( 4, 4 ),
 ( 4, 4 ),
 ( 0.0000000000000000000, 1.000000000000000000 ),
 ( 0.0000000000000000000, 1.000000000000000000 ),
 .UNSPECIFIED. ) 
 GEOMETRIC_REPRESENTATION_ITEM ( )  RATIONAL_B_SPLINE_SURFACE ( (
 ( 1.000000000000000000, 0.9998158804806002200, 0.9998158804806002200, 1.000000000000000000),
 ( 0.9992548152561037100, 0.9990708329397608400, 0.9990708329397608400, 0.9992548152561037100),
 ( 0.9992548152561037100, 0.9990708329397608400, 0.9990708329397608400, 0.9992548152561037100),
 ( 1.000000000000000000, 0.9998158804806002200, 0.9998158804806002200, 1.000000000000000000) ) ) 
 REPRESENTATION_ITEM ( '' )  SURFACE ( )  );
#207 =( LENGTH_UNIT ( ) NAMED_UNIT ( * ) SI_UNIT ( .MILLI., .METRE. ) );
#208 = LOCAL_TIME ( 13, 34, 18.00000000000000000, #70 ) ;
#209 = EDGE_LOOP ( 'NONE', ( #60, #118, #104, #63, #96 ) ) ;
#210 = EDGE_CURVE ( 'NONE', #83, #235, #90, .T. ) ;
#211 = APPROVAL_DATE_TIME ( #12, #65 ) ;
#212 =( BOUNDED_SURFACE ( )  B_SPLINE_SURFACE ( 3, 3, ( 
 ( #181, #161, #234, #32 ),
 ( #163, #214, #1, #170 ),
 ( #5, #86, #19, #108 ),
 ( #143, #71, #199, #169 ) ),
 .UNSPECIFIED., .F., .F., .F. ) 
 B_SPLINE_SURFACE_WITH_KNOTS ( ( 4, 4 ),
 ( 4, 4 ),
 ( 0.0000000000000000000, 1.000000000000000000 ),
 ( 0.0000000000000000000, 1.000000000000000000 ),
 .UNSPECIFIED. ) 
 GEOMETRIC_REPRESENTATION_ITEM ( )  RATIONAL_B_SPLINE_SURFACE ( (
 ( 1.000000000000000000, 0.9998158804806002200, 0.9998158804806002200, 1.000000000000000000),
 ( 0.9992548152561037100, 0.9990708329397608400, 0.9990708329397608400, 0.9992548152561037100),
 ( 0.9992548152561037100, 0.9990708329397608400, 0.9990708329397608400, 0.9992548152561037100),
 ( 1.000000000000000000, 0.9998158804806002200, 0.9998158804806002200, 1.000000000000000000) ) ) 
 REPRESENTATION_ITEM ( '' )  SURFACE ( )  );
#213 = ORIENTED_EDGE ( 'NONE', *, *, #51, .T. ) ;
#214 = CARTESIAN_POINT ( 'NONE',  ( 4.262264325355731700, -4.287290513477993900, -0.1013834153070319300 ) ) ;
#215 = ADVANCED_FACE ( 'NONE', ( #193 ), #128, .T. ) ;
#216 = DIRECTION ( 'NONE',  ( 1.000000000000000000, 0.0000000000000000000, 0.0000000000000000000 ) ) ;
#217 = CARTESIAN_POINT ( 'NONE',  ( 12.69999999999999900, 2.442490654175340100E-015, 0.2967599604157900000 ) ) ;
#218 = CIRCLE ( 'NONE', #176, 12.69999999999999900 ) ;
#219 = DIRECTION ( 'NONE',  ( -2.137445824776170700E-016, -1.000000000000000000, -4.083203474163871400E-016 ) ) ;
#220 = CIRCLE ( 'NONE', #93, 12.69999999999999900 ) ;
#221 = APPROVAL_ROLE ( '' ) ;
#222 = APPROVAL_PERSON_ORGANIZATION ( #61, #136, #221 ) ;
#223 = CC_DESIGN_PERSON_AND_ORGANIZATION_ASSIGNMENT ( #120, #114, ( #98 ) ) ;
#224 = PERSON_AND_ORGANIZATION_ROLE ( 'creator' ) ;
#225 = APPROVAL_STATUS ( 'not_yet_approved' ) ;
#226 = EDGE_CURVE ( 'NONE', #202, #67, #218, .T. ) ;
#227 = APPROVAL_PERSON_ORGANIZATION ( #78, #65, #36 ) ;
#228 = APPROVAL_STATUS ( 'not_yet_approved' ) ;
#229 = COORDINATED_UNIVERSAL_TIME_OFFSET ( 2, 0, .AHEAD. ) ;
#230 = CC_DESIGN_PERSON_AND_ORGANIZATION_ASSIGNMENT ( #196, #9, ( #11 ) ) ;
#231 = FACE_OUTER_BOUND ( 'NONE', #15, .T. ) ;
#232 = VECTOR ( 'NONE', #55, 1000.000000000000000 ) ;
#233 = DIRECTION ( 'NONE',  ( -0.0000000000000000000, -0.0000000000000000000, -1.000000000000000000 ) ) ;
#234 = CARTESIAN_POINT ( 'NONE',  ( 8.510650926002936600, -12.85228706998409700, 0.4039404803151110400 ) ) ;
#235 = VERTEX_POINT ( 'NONE', #10 ) ;
ENDSEC;
END-ISO-10303-21;
