ISO-10303-21;
HEADER;
FILE_DESCRIPTION (( 'STEP AP203' ),
    '1' );
FILE_NAME ('110-5227E CaF2 pl-cx 25.4 F1000.STEP',
    '2019-01-03T11:11:01',
    ( '' ),
    ( '' ),
    'SwSTEP 2.0',
    'SolidWorks 2017',
    '' );
FILE_SCHEMA (( 'CONFIG_CONTROL_DESIGN' ));
ENDSEC;

DATA;
#1 = PERSON_AND_ORGANIZATION ( #206, #171 ) ;
#2 = CARTESIAN_POINT ( 'NONE',  ( -12.69999999999999900, 3.997792089092478900E-015, 3.200000000000000200 ) ) ;
#3 = CARTESIAN_POINT ( 'NONE',  ( -1.630640067418198900E-013, -4.285466302655672500, -0.06585145574878553700 ) ) ;
#4 = CARTESIAN_POINT ( 'NONE',  ( 4.257542438047983600, -12.85235230930901600, 0.1974921862852296000 ) ) ;
#5 = EDGE_CURVE ( 'NONE', #46, #86, #42, .T. ) ;
#6 = CARTESIAN_POINT ( 'NONE',  ( -6.064950328719697400E-014, 4.285466302655870600, -0.06585145574873457800 ) ) ;
#7 = CARTESIAN_POINT ( 'NONE',  ( 8.514588258941243400, -12.85235230930901600, 0.2625190314749877300 ) ) ;
#8 = CC_DESIGN_PERSON_AND_ORGANIZATION_ASSIGNMENT ( #66, #195, ( #188 ) ) ;
#9 = PERSON_AND_ORGANIZATION_ROLE ( 'design_owner' ) ;
#10 = ORIENTED_EDGE ( 'NONE', *, *, #109, .F. ) ;
#11 = PERSON_AND_ORGANIZATION ( #206, #171 ) ;
#12 = AXIS2_PLACEMENT_3D ( 'NONE', #187, #182, #137 ) ;
#13 = VERTEX_POINT ( 'NONE', #164 ) ;
#14 = EDGE_CURVE ( 'NONE', #86, #46, #198, .T. ) ;
#15 = VECTOR ( 'NONE', #203, 1000.000000000000000 ) ;
#16 = CARTESIAN_POINT ( 'NONE',  ( 4.996003610813200500E-016, 2.442490654175340100E-015, 0.1928367033160310100 ) ) ;
#17 = CALENDAR_DATE ( 2019, 3, 1 ) ;
#18 = EDGE_CURVE ( 'NONE', #92, #13, #180, .T. ) ;
#19 = DIRECTION ( 'NONE',  ( -0.0000000000000000000, -0.0000000000000000000, -1.000000000000000000 ) ) ;
#20 = CARTESIAN_POINT ( 'NONE',  ( -1.613292832658430600E-013, 12.85235230930921100, 0.1974921862851839700 ) ) ;
#21 = CARTESIAN_POINT ( 'NONE',  ( 0.0000000000000000000, 0.0000000000000000000, 0.0000000000000000000 ) ) ;
#22 = FACE_OUTER_BOUND ( 'NONE', #87, .T. ) ;
#23 = DIRECTION ( 'NONE',  ( 0.0000000000000000000, 0.0000000000000000000, 1.000000000000000000 ) ) ;
#24 = LOCAL_TIME ( 13, 11, 1.000000000000000000, #114 ) ;
#25 = ADVANCED_FACE ( 'NONE', ( #139 ), #165, .T. ) ;
#26 = EDGE_CURVE ( 'NONE', #98, #92, #85, .T. ) ;
#27 = PRODUCT ( '110-5227E CaF2 pl-cx 25.4 F1000', '110-5227E CaF2 pl-cx 25.4 F1000', '', ( #228 ) ) ;
#28 = SECURITY_CLASSIFICATION_LEVEL ( 'unclassified' ) ;
#29 = ORIENTED_EDGE ( 'NONE', *, *, #213, .T. ) ;
#30 = AXIS2_PLACEMENT_3D ( 'NONE', #21, #157, #208 ) ;
#31 = LOCAL_TIME ( 13, 11, 1.000000000000000000, #110 ) ;
#32 =( BOUNDED_SURFACE ( )  B_SPLINE_SURFACE ( 3, 3, ( 
 ( #135, #53, #218, #117 ),
 ( #115, #89, #221, #3 ),
 ( #153, #37, #186, #71 ),
 ( #205, #96, #118, #20 ) ),
 .UNSPECIFIED., .F., .F., .F. ) 
 B_SPLINE_SURFACE_WITH_KNOTS ( ( 4, 4 ),
 ( 4, 4 ),
 ( 0.0000000000000000000, 1.000000000000000000 ),
 ( 0.0000000000000000000, 1.000000000000000000 ),
 .UNSPECIFIED. ) 
 GEOMETRIC_REPRESENTATION_ITEM ( )  RATIONAL_B_SPLINE_SURFACE ( (
 ( 1.000000000000000000, 0.9999222372746698900, 0.9999222372746698900, 1.000000000000000000),
 ( 0.9996852463363051800, 0.9996075080870777700, 0.9996075080870777700, 0.9996852463363051800),
 ( 0.9996852463363051800, 0.9996075080870777700, 0.9996075080870777700, 0.9996852463363051800),
 ( 1.000000000000000000, 0.9999222372746698900, 0.9999222372746698900, 1.000000000000000000) ) ) 
 REPRESENTATION_ITEM ( '' )  SURFACE ( )  );
#33 = CC_DESIGN_PERSON_AND_ORGANIZATION_ASSIGNMENT ( #11, #160, ( #99 ) ) ;
#34 = APPROVAL_PERSON_ORGANIZATION ( #1, #84, #64 ) ;
#35 = VERTEX_POINT ( 'NONE', #185 ) ;
#36 = CARTESIAN_POINT ( 'NONE',  ( 12.69999999999999900, 2.442490654175340100E-015, 0.1928367033160310100 ) ) ;
#37 = CARTESIAN_POINT ( 'NONE',  ( -8.519951208554474000, 4.285466302655869700, -0.0007836531241055754700 ) ) ;
#38 = CARTESIAN_POINT ( 'NONE',  ( 8.519951208554372700, 4.285466302655869700, -0.0007836531240850839400 ) ) ;
#39 = FACE_OUTER_BOUND ( 'NONE', #130, .T. ) ;
#40 = CARTESIAN_POINT ( 'NONE',  ( 12.77014434422504900, 12.85235230930921100, 0.3925575518604271200 ) ) ;
#41 =( NAMED_UNIT ( * ) PLANE_ANGLE_UNIT ( ) SI_UNIT ( $, .RADIAN. ) );
#42 = CIRCLE ( 'NONE', #51, 12.69999999999999900 ) ;
#43 = DIRECTION ( 'NONE',  ( -0.0000000000000000000, -0.0000000000000000000, -1.000000000000000000 ) ) ;
#44 = APPROVAL_STATUS ( 'not_yet_approved' ) ;
#45 = PERSON_AND_ORGANIZATION_ROLE ( 'classification_officer' ) ;
#46 = VERTEX_POINT ( 'NONE', #112 ) ;
#47 = CALENDAR_DATE ( 2019, 3, 1 ) ;
#48 = DATE_TIME_ROLE ( 'classification_date' ) ;
#49 = CC_DESIGN_PERSON_AND_ORGANIZATION_ASSIGNMENT ( #175, #82, ( #99 ) ) ;
#50 = AXIS2_PLACEMENT_3D ( 'NONE', #16, #152, #93 ) ;
#51 = AXIS2_PLACEMENT_3D ( 'NONE', #200, #108, #168 ) ;
#52 = CC_DESIGN_APPROVAL ( #136, ( #99 ) ) ;
#53 = CARTESIAN_POINT ( 'NONE',  ( -8.514588258941344600, -12.85235230930901600, 0.2625190314749672500 ) ) ;
#54 = CYLINDRICAL_SURFACE ( 'NONE', #140, 12.69999999999999900 ) ;
#55 = DIRECTION ( 'NONE',  ( 0.0000000000000000000, 0.0000000000000000000, 1.000000000000000000 ) ) ;
#56 = DIRECTION ( 'NONE',  ( 1.000000000000000000, 0.0000000000000000000, 0.0000000000000000000 ) ) ;
#57 = CARTESIAN_POINT ( 'NONE',  ( 12.77818767393022600, -4.285466302655672500, 0.1293367725762503400 ) ) ;
#58 = CARTESIAN_POINT ( 'NONE',  ( 12.77014434422504900, -12.85235230930901400, 0.3925575518604271200 ) ) ;
#59 = AXIS2_PLACEMENT_3D ( 'NONE', #219, #55, #235 ) ;
#60 = ORIENTED_EDGE ( 'NONE', *, *, #5, .F. ) ;
#61 = APPROVAL_ROLE ( '' ) ;
#62 = LOCAL_TIME ( 13, 11, 1.000000000000000000, #81 ) ;
#63 = ADVANCED_FACE ( 'NONE', ( #39 ), #70, .T. ) ;
#64 = APPROVAL_ROLE ( '' ) ;
#65 = ORIENTED_EDGE ( 'NONE', *, *, #14, .T. ) ;
#66 = PERSON_AND_ORGANIZATION ( #206, #171 ) ;
#67 = DESIGN_CONTEXT ( 'detailed design', #141, 'design' ) ;
#68 = ORIENTED_EDGE ( 'NONE', *, *, #109, .T. ) ;
#69 = CARTESIAN_POINT ( 'NONE',  ( 0.0000000000000000000, 26.11199999999999800, 3.200000000000000200 ) ) ;
#70 = PLANE ( 'NONE',  #101 ) ;
#71 = CARTESIAN_POINT ( 'NONE',  ( -1.630640067418198900E-013, 4.285466302655870600, -0.06585145574878141500 ) ) ;
#72 = ADVANCED_BREP_SHAPE_REPRESENTATION ( '110-5227E CaF2 pl-cx 25.4 F1000', ( #215, #30 ), #79 ) ;
#73 = PRODUCT_RELATED_PRODUCT_CATEGORY ( 'detail', '', ( #27 ) ) ;
#74 = CARTESIAN_POINT ( 'NONE',  ( 4.996003610813200500E-016, 2.442490654175340100E-015, 0.1928367033160310100 ) ) ;
#75 = CARTESIAN_POINT ( 'NONE',  ( 4.996003610813200500E-016, 2.442490654175340100E-015, 0.1928367033160310100 ) ) ;
#76 = ORIENTED_EDGE ( 'NONE', *, *, #14, .F. ) ;
#77 = CARTESIAN_POINT ( 'NONE',  ( -6.057554645270866900E-014, -12.85235230930901400, 0.1974921862852308000 ) ) ;
#78 = ORIENTED_EDGE ( 'NONE', *, *, #149, .T. ) ;
#79 =( GEOMETRIC_REPRESENTATION_CONTEXT ( 3 ) GLOBAL_UNCERTAINTY_ASSIGNED_CONTEXT ( ( #127 ) ) GLOBAL_UNIT_ASSIGNED_CONTEXT ( ( #121, #41, #207 ) ) REPRESENTATION_CONTEXT ( 'NONE', 'WORKASPACE' ) );
#80 = APPLICATION_PROTOCOL_DEFINITION ( 'international standard', 'config_control_design', 1994, #141 ) ;
#81 = COORDINATED_UNIVERSAL_TIME_OFFSET ( 2, 0, .AHEAD. ) ;
#82 = PERSON_AND_ORGANIZATION_ROLE ( 'design_supplier' ) ;
#83 = ORIENTED_EDGE ( 'NONE', *, *, #226, .T. ) ;
#84 = APPROVAL ( #174, 'UNSPECIFIED' ) ;
#85 = CIRCLE ( 'NONE', #12, 12.69999999999999900 ) ;
#86 = VERTEX_POINT ( 'NONE', #2 ) ;
#87 = EDGE_LOOP ( 'NONE', ( #172, #106, #83 ) ) ;
#88 = PRODUCT_DEFINITION_SHAPE ( 'NONE', 'NONE',  #188 ) ;
#89 = CARTESIAN_POINT ( 'NONE',  ( -8.519951208554474000, -4.285466302655673400, -0.0007836531241096955400 ) ) ;
#90 = SECURITY_CLASSIFICATION ( '', '', #28 ) ;
#91 = DIRECTION ( 'NONE',  ( 1.000000000000000000, 7.803724544329299600E-032, -2.808377446179599900E-016 ) ) ;
#92 = VERTEX_POINT ( 'NONE', #154 ) ;
#93 = DIRECTION ( 'NONE',  ( 1.000000000000000000, 8.881784197001252300E-016, 0.0000000000000000000 ) ) ;
#94 = APPROVAL_PERSON_ORGANIZATION ( #184, #217, #61 ) ;
#95 = DIRECTION ( 'NONE',  ( 0.0000000000000000000, 0.0000000000000000000, 1.000000000000000000 ) ) ;
#96 = CARTESIAN_POINT ( 'NONE',  ( -8.514588258941344600, 12.85235230930921400, 0.2625190314749672500 ) ) ;
#97 = CARTESIAN_POINT ( 'NONE',  ( 8.519951208554372700, -4.285466302655673400, -0.0007836531240892583300 ) ) ;
#98 = VERTEX_POINT ( 'NONE', #36 ) ;
#99 = PRODUCT_DEFINITION_FORMATION_WITH_SPECIFIED_SOURCE ( 'ANY', '', #27, .NOT_KNOWN. ) ;
#100 = APPLICATION_CONTEXT ( 'configuration controlled 3d designs of mechanical parts and assemblies' ) ;
#101 = AXIS2_PLACEMENT_3D ( 'NONE', #69, #95, #116 ) ;
#102 = CARTESIAN_POINT ( 'NONE',  ( 8.514588258941243400, 12.85235230930921400, 0.2625190314749877300 ) ) ;
#103 = DATE_AND_TIME ( #107, #24 ) ;
#104 = PERSON_AND_ORGANIZATION ( #206, #171 ) ;
#105 = DATE_TIME_ROLE ( 'creation_date' ) ;
#106 = ORIENTED_EDGE ( 'NONE', *, *, #18, .T. ) ;
#107 = CALENDAR_DATE ( 2019, 3, 1 ) ;
#108 = DIRECTION ( 'NONE',  ( -0.0000000000000000000, -0.0000000000000000000, -1.000000000000000000 ) ) ;
#109 = EDGE_CURVE ( 'NONE', #35, #13, #177, .T. ) ;
#110 = COORDINATED_UNIVERSAL_TIME_OFFSET ( 2, 0, .AHEAD. ) ;
#111 = CC_DESIGN_DATE_AND_TIME_ASSIGNMENT ( #103, #48, ( #90 ) ) ;
#112 = CARTESIAN_POINT ( 'NONE',  ( 12.69999999999999900, 2.442490654175340100E-015, 3.200000000000000200 ) ) ;
#113 = LOCAL_TIME ( 13, 11, 1.000000000000000000, #209 ) ;
#114 = COORDINATED_UNIVERSAL_TIME_OFFSET ( 2, 0, .AHEAD. ) ;
#115 = CARTESIAN_POINT ( 'NONE',  ( -12.77818767393026700, -4.285466302655672500, 0.1293367725762295800 ) ) ;
#116 = DIRECTION ( 'NONE',  ( 1.000000000000000000, 0.0000000000000000000, -0.0000000000000000000 ) ) ;
#117 = CARTESIAN_POINT ( 'NONE',  ( -1.613292832658430600E-013, -12.85235230930901400, 0.1974921862851839700 ) ) ;
#118 = CARTESIAN_POINT ( 'NONE',  ( -4.257542438048145300, 12.85235230930921400, 0.1974921862851862500 ) ) ;
#119 = COORDINATED_UNIVERSAL_TIME_OFFSET ( 2, 0, .AHEAD. ) ;
#120 = CARTESIAN_POINT ( 'NONE',  ( 12.69999999999999900, 2.442490654175340100E-015, 0.1928367033160310100 ) ) ;
#121 =( LENGTH_UNIT ( ) NAMED_UNIT ( * ) SI_UNIT ( .MILLI., .METRE. ) );
#122 = DIRECTION ( 'NONE',  ( 0.0000000000000000000, 0.0000000000000000000, 1.000000000000000000 ) ) ;
#123 = ORIENTED_EDGE ( 'NONE', *, *, #169, .T. ) ;
#124 = CARTESIAN_POINT ( 'NONE',  ( -6.064950328719698600E-014, -4.285466302655672500, -0.06585145574873872700 ) ) ;
#125 = CC_DESIGN_APPROVAL ( #217, ( #188 ) ) ;
#126 = DIRECTION ( 'NONE',  ( 1.000000000000000000, -1.776356839400250500E-015, 0.0000000000000000000 ) ) ;
#127 = UNCERTAINTY_MEASURE_WITH_UNIT (LENGTH_MEASURE( 1.000000000000000100E-005 ), #121, 'distance_accuracy_value', 'NONE');
#128 = AXIS2_PLACEMENT_3D ( 'NONE', #75, #190, #138 ) ;
#129 = EDGE_LOOP ( 'NONE', ( #10, #78, #65, #189, #158 ) ) ;
#130 = EDGE_LOOP ( 'NONE', ( #60, #76 ) ) ;
#131 = PERSON_AND_ORGANIZATION ( #206, #171 ) ;
#132 = LINE ( 'NONE', #148, #15 ) ;
#133 = SHAPE_DEFINITION_REPRESENTATION ( #88, #72 ) ;
#134 = CC_DESIGN_APPROVAL ( #84, ( #90 ) ) ;
#135 = CARTESIAN_POINT ( 'NONE',  ( -12.77014434422508800, -12.85235230930901400, 0.3925575518604063100 ) ) ;
#136 = APPROVAL ( #44, 'UNSPECIFIED' ) ;
#137 = DIRECTION ( 'NONE',  ( 1.000000000000000000, 0.0000000000000000000, 0.0000000000000000000 ) ) ;
#138 = DIRECTION ( 'NONE',  ( 1.000000000000000000, 0.0000000000000000000, 0.0000000000000000000 ) ) ;
#139 = FACE_OUTER_BOUND ( 'NONE', #129, .T. ) ;
#140 = AXIS2_PLACEMENT_3D ( 'NONE', #74, #23, #192 ) ;
#141 = APPLICATION_CONTEXT ( 'configuration controlled 3d designs of mechanical parts and assemblies' ) ;
#142 = APPROVAL_STATUS ( 'not_yet_approved' ) ;
#143 = ORIENTED_EDGE ( 'NONE', *, *, #213, .F. ) ;
#144 = APPROVAL_ROLE ( '' ) ;
#145 = EDGE_LOOP ( 'NONE', ( #224, #143, #202, #123, #146 ) ) ;
#146 = ORIENTED_EDGE ( 'NONE', *, *, #5, .T. ) ;
#147 = CALENDAR_DATE ( 2019, 3, 1 ) ;
#148 = CARTESIAN_POINT ( 'NONE',  ( -12.69999999999999900, 3.997792089092478900E-015, 0.1928367033160310100 ) ) ;
#149 = EDGE_CURVE ( 'NONE', #35, #86, #132, .T. ) ;
#150 = FACE_OUTER_BOUND ( 'NONE', #145, .T. ) ;
#151 = APPROVAL_DATE_TIME ( #166, #217 ) ;
#152 = DIRECTION ( 'NONE',  ( -0.0000000000000000000, -0.0000000000000000000, -1.000000000000000000 ) ) ;
#153 = CARTESIAN_POINT ( 'NONE',  ( -12.77818767393026700, 4.285466302655870600, 0.1293367725762336900 ) ) ;
#154 = CARTESIAN_POINT ( 'NONE',  ( -6.057685388804583600E-014, -12.70000000000061000, 0.1928367033160385500 ) ) ;
#155 = CARTESIAN_POINT ( 'NONE',  ( 4.260224069252763500, 4.285466302655869700, -0.06585145574873575700 ) ) ;
#156 = CARTESIAN_POINT ( 'NONE',  ( 12.77818767393022600, 4.285466302655870600, 0.1293367725762545300 ) ) ;
#157 = DIRECTION ( 'NONE',  ( 0.0000000000000000000, 0.0000000000000000000, 1.000000000000000000 ) ) ;
#158 = ORIENTED_EDGE ( 'NONE', *, *, #226, .F. ) ;
#159 = ADVANCED_FACE ( 'NONE', ( #161 ), #32, .T. ) ;
#160 = PERSON_AND_ORGANIZATION_ROLE ( 'creator' ) ;
#161 = FACE_OUTER_BOUND ( 'NONE', #231, .T. ) ;
#162 = DATE_AND_TIME ( #147, #31 ) ;
#163 =( BOUNDED_SURFACE ( )  B_SPLINE_SURFACE ( 3, 3, ( 
 ( #77, #4, #7, #58 ),
 ( #124, #223, #97, #57 ),
 ( #6, #155, #38, #156 ),
 ( #170, #173, #102, #40 ) ),
 .UNSPECIFIED., .F., .F., .T. ) 
 B_SPLINE_SURFACE_WITH_KNOTS ( ( 4, 4 ),
 ( 4, 4 ),
 ( 0.0000000000000000000, 1.000000000000000000 ),
 ( 0.0000000000000000000, 1.000000000000000000 ),
 .UNSPECIFIED. ) 
 GEOMETRIC_REPRESENTATION_ITEM ( )  RATIONAL_B_SPLINE_SURFACE ( (
 ( 1.000000000000000000, 0.9999222372746698900, 0.9999222372746698900, 1.000000000000000000),
 ( 0.9996852463363051800, 0.9996075080870777700, 0.9996075080870777700, 0.9996852463363051800),
 ( 0.9996852463363051800, 0.9996075080870777700, 0.9996075080870777700, 0.9996852463363051800),
 ( 1.000000000000000000, 0.9999222372746698900, 0.9999222372746698900, 1.000000000000000000) ) ) 
 REPRESENTATION_ITEM ( '' )  SURFACE ( )  );
#164 = CARTESIAN_POINT ( 'NONE',  ( -6.057685388804583600E-014, 12.70000000000081100, 0.1928367033160385500 ) ) ;
#165 = CYLINDRICAL_SURFACE ( 'NONE', #59, 12.69999999999999900 ) ;
#166 = DATE_AND_TIME ( #199, #178 ) ;
#167 = CARTESIAN_POINT ( 'NONE',  ( 4.996003610813200500E-016, 2.442490654175340100E-015, 3.200000000000000200 ) ) ;
#168 = DIRECTION ( 'NONE',  ( 1.000000000000000000, 0.0000000000000000000, 0.0000000000000000000 ) ) ;
#169 = EDGE_CURVE ( 'NONE', #98, #46, #225, .T. ) ;
#170 = CARTESIAN_POINT ( 'NONE',  ( -6.057554645270866900E-014, 12.85235230930921100, 0.1974921862852308000 ) ) ;
#171 = ORGANIZATION ( 'UNSPECIFIED', 'UNSPECIFIED', '' ) ;
#172 = ORIENTED_EDGE ( 'NONE', *, *, #26, .T. ) ;
#173 = CARTESIAN_POINT ( 'NONE',  ( 4.257542438047983600, 12.85235230930921400, 0.1974921862852296000 ) ) ;
#174 = APPROVAL_STATUS ( 'not_yet_approved' ) ;
#175 = PERSON_AND_ORGANIZATION ( #206, #171 ) ;
#176 = CIRCLE ( 'NONE', #181, 12.69999999999999900 ) ;
#177 = CIRCLE ( 'NONE', #50, 12.69999999999999900 ) ;
#178 = LOCAL_TIME ( 13, 11, 1.000000000000000000, #119 ) ;
#179 = ORIENTED_EDGE ( 'NONE', *, *, #18, .F. ) ;
#180 = CIRCLE ( 'NONE', #234, 418.3000000000000100 ) ;
#181 = AXIS2_PLACEMENT_3D ( 'NONE', #211, #43, #126 ) ;
#182 = DIRECTION ( 'NONE',  ( -0.0000000000000000000, -0.0000000000000000000, -1.000000000000000000 ) ) ;
#183 = DIRECTION ( 'NONE',  ( 0.0000000000000000000, -1.000000000000000000, -2.654131065324304400E-016 ) ) ;
#184 = PERSON_AND_ORGANIZATION ( #206, #171 ) ;
#185 = CARTESIAN_POINT ( 'NONE',  ( -12.69999999999999900, 3.997792089092478900E-015, 0.1928367033160310100 ) ) ;
#186 = CARTESIAN_POINT ( 'NONE',  ( -4.260224069252926100, 4.285466302655869700, -0.06585145574877919500 ) ) ;
#187 = CARTESIAN_POINT ( 'NONE',  ( 4.996003610813200500E-016, 2.442490654175340100E-015, 0.1928367033160310100 ) ) ;
#188 = PRODUCT_DEFINITION ( 'UNKNOWN', '', #99, #67 ) ;
#189 = ORIENTED_EDGE ( 'NONE', *, *, #169, .F. ) ;
#190 = DIRECTION ( 'NONE',  ( -0.0000000000000000000, -0.0000000000000000000, -1.000000000000000000 ) ) ;
#191 = APPROVAL_DATE_TIME ( #233, #84 ) ;
#192 = DIRECTION ( 'NONE',  ( 1.000000000000000000, 0.0000000000000000000, 0.0000000000000000000 ) ) ;
#193 = VECTOR ( 'NONE', #122, 1000.000000000000000 ) ;
#194 = DATE_AND_TIME ( #17, #62 ) ;
#195 = PERSON_AND_ORGANIZATION_ROLE ( 'creator' ) ;
#196 = CC_DESIGN_PERSON_AND_ORGANIZATION_ASSIGNMENT ( #131, #45, ( #90 ) ) ;
#197 = ADVANCED_FACE ( 'NONE', ( #150 ), #54, .T. ) ;
#198 = CIRCLE ( 'NONE', #212, 12.69999999999999900 ) ;
#199 = CALENDAR_DATE ( 2019, 3, 1 ) ;
#200 = CARTESIAN_POINT ( 'NONE',  ( 4.996003610813200500E-016, 2.442490654175340100E-015, 3.200000000000000200 ) ) ;
#201 = CARTESIAN_POINT ( 'NONE',  ( 5.684341886080800200E-014, 1.989519660128280000E-013, 418.3000000000000100 ) ) ;
#202 = ORIENTED_EDGE ( 'NONE', *, *, #26, .F. ) ;
#203 = DIRECTION ( 'NONE',  ( 0.0000000000000000000, 0.0000000000000000000, 1.000000000000000000 ) ) ;
#204 = CC_DESIGN_DATE_AND_TIME_ASSIGNMENT ( #194, #105, ( #188 ) ) ;
#205 = CARTESIAN_POINT ( 'NONE',  ( -12.77014434422508800, 12.85235230930921100, 0.3925575518604063100 ) ) ;
#206 = PERSON ( 'UNSPECIFIED', 'UNSPECIFIED', 'UNSPECIFIED', ('UNSPECIFIED'), ('UNSPECIFIED'), ('UNSPECIFIED') ) ;
#207 =( NAMED_UNIT ( * ) SI_UNIT ( $, .STERADIAN. ) SOLID_ANGLE_UNIT ( ) );
#208 = DIRECTION ( 'NONE',  ( 1.000000000000000000, 0.0000000000000000000, 0.0000000000000000000 ) ) ;
#209 = COORDINATED_UNIVERSAL_TIME_OFFSET ( 2, 0, .AHEAD. ) ;
#210 = APPROVAL_PERSON_ORGANIZATION ( #104, #136, #144 ) ;
#211 = CARTESIAN_POINT ( 'NONE',  ( 4.996003610813200500E-016, 2.442490654175340100E-015, 0.1928367033160310100 ) ) ;
#212 = AXIS2_PLACEMENT_3D ( 'NONE', #167, #19, #56 ) ;
#213 = EDGE_CURVE ( 'NONE', #92, #35, #216, .T. ) ;
#214 = CC_DESIGN_SECURITY_CLASSIFICATION ( #90, ( #99 ) ) ;
#215 = MANIFOLD_SOLID_BREP ( 'Imported1', #232 ) ;
#216 = CIRCLE ( 'NONE', #128, 12.69999999999999900 ) ;
#217 = APPROVAL ( #142, 'UNSPECIFIED' ) ;
#218 = CARTESIAN_POINT ( 'NONE',  ( -4.257542438048145300, -12.85235230930901600, 0.1974921862851862500 ) ) ;
#219 = CARTESIAN_POINT ( 'NONE',  ( 4.996003610813200500E-016, 2.442490654175340100E-015, 0.1928367033160310100 ) ) ;
#220 = APPROVAL_DATE_TIME ( #162, #136 ) ;
#221 = CARTESIAN_POINT ( 'NONE',  ( -4.260224069252926100, -4.285466302655673400, -0.06585145574878328900 ) ) ;
#222 = CC_DESIGN_PERSON_AND_ORGANIZATION_ASSIGNMENT ( #229, #9, ( #27 ) ) ;
#223 = CARTESIAN_POINT ( 'NONE',  ( 4.260224069252763500, -4.285466302655673400, -0.06585145574873993400 ) ) ;
#224 = ORIENTED_EDGE ( 'NONE', *, *, #149, .F. ) ;
#225 = LINE ( 'NONE', #120, #193 ) ;
#226 = EDGE_CURVE ( 'NONE', #13, #98, #176, .T. ) ;
#227 = APPLICATION_PROTOCOL_DEFINITION ( 'international standard', 'config_control_design', 1994, #100 ) ;
#228 = MECHANICAL_CONTEXT ( 'NONE', #100, 'mechanical' ) ;
#229 = PERSON_AND_ORGANIZATION ( #206, #171 ) ;
#230 = ADVANCED_FACE ( 'NONE', ( #22 ), #163, .T. ) ;
#231 = EDGE_LOOP ( 'NONE', ( #179, #29, #68 ) ) ;
#232 = CLOSED_SHELL ( 'NONE', ( #230, #25, #159, #197, #63 ) ) ;
#233 = DATE_AND_TIME ( #47, #113 ) ;
#234 = AXIS2_PLACEMENT_3D ( 'NONE', #201, #91, #183 ) ;
#235 = DIRECTION ( 'NONE',  ( 1.000000000000000000, 0.0000000000000000000, 0.0000000000000000000 ) ) ;
ENDSEC;
END-ISO-10303-21;
