ISO-10303-21;
HEADER;
FILE_DESCRIPTION (( 'STEP AP203' ),
    '1' );
FILE_NAME ('110-5225E CaF2 pl-cx 25.4 F750.STEP',
    '2019-01-03T10:30:55',
    ( '' ),
    ( '' ),
    'SwSTEP 2.0',
    'SolidWorks 2017',
    '' );
FILE_SCHEMA (( 'CONFIG_CONTROL_DESIGN' ));
ENDSEC;

DATA;
#1 = CIRCLE ( 'NONE', #58, 313.6999999999999900 ) ;
#2 = COORDINATED_UNIVERSAL_TIME_OFFSET ( 2, 0, .AHEAD. ) ;
#3 = SHAPE_DEFINITION_REPRESENTATION ( #136, #174 ) ;
#4 = ADVANCED_FACE ( 'NONE', ( #40 ), #9, .T. ) ;
#5 = AXIS2_PLACEMENT_3D ( 'NONE', #10, #146, #207 ) ;
#6 = CIRCLE ( 'NONE', #71, 12.69999999999999900 ) ;
#7 = CALENDAR_DATE ( 2019, 3, 1 ) ;
#8 = CARTESIAN_POINT ( 'NONE',  ( 12.69999999999999900, 2.442490654175340100E-015, 0.2571822485000679900 ) ) ;
#9 = CYLINDRICAL_SURFACE ( 'NONE', #108, 12.69999999999999900 ) ;
#10 = CARTESIAN_POINT ( 'NONE',  ( 4.996003610813200500E-016, 2.442490654175340100E-015, 0.2571822485000679900 ) ) ;
#11 = CARTESIAN_POINT ( 'NONE',  ( 4.996003610813200500E-016, 2.442490654175340100E-015, 3.000000000000000000 ) ) ;
#12 = LOCAL_TIME ( 12, 30, 55.00000000000000000, #129 ) ;
#13 = UNCERTAINTY_MEASURE_WITH_UNIT (LENGTH_MEASURE( 1.000000000000000100E-005 ), #186, 'distance_accuracy_value', 'NONE');
#14 = ORIENTED_EDGE ( 'NONE', *, *, #158, .T. ) ;
#15 = DIRECTION ( 'NONE',  ( 1.000000000000000000, 0.0000000000000000000, -0.0000000000000000000 ) ) ;
#16 = APPLICATION_CONTEXT ( 'configuration controlled 3d designs of mechanical parts and assemblies' ) ;
#17 = PRODUCT_RELATED_PRODUCT_CATEGORY ( 'detail', '', ( #159 ) ) ;
#18 = ORIENTED_EDGE ( 'NONE', *, *, #171, .T. ) ;
#19 = AXIS2_PLACEMENT_3D ( 'NONE', #11, #126, #227 ) ;
#20 = CALENDAR_DATE ( 2019, 3, 1 ) ;
#21 = CC_DESIGN_SECURITY_CLASSIFICATION ( #151, ( #214 ) ) ;
#22 = ORIENTED_EDGE ( 'NONE', *, *, #216, .T. ) ;
#23 = CC_DESIGN_APPROVAL ( #139, ( #160 ) ) ;
#24 = CARTESIAN_POINT ( 'NONE',  ( -12.69999999999999900, 3.997792089092478900E-015, 0.2571822485000679900 ) ) ;
#25 = CARTESIAN_POINT ( 'NONE',  ( -2.842170943040400100E-014, -4.286504434314674800, -0.08784610114549651300 ) ) ;
#26 = EDGE_CURVE ( 'NONE', #81, #120, #79, .T. ) ;
#27 = CARTESIAN_POINT ( 'NONE',  ( -2.842170943040400100E-014, 0.0000000000000000000, 313.6999999999999900 ) ) ;
#28 = CARTESIAN_POINT ( 'NONE',  ( -2.842170943040400100E-014, -12.70000000000016300, 0.2571822485000721500 ) ) ;
#29 = LOCAL_TIME ( 12, 30, 55.00000000000000000, #2 ) ;
#30 = ORIENTED_EDGE ( 'NONE', *, *, #206, .F. ) ;
#31 = DIRECTION ( 'NONE',  ( -0.0000000000000000000, -0.0000000000000000000, -1.000000000000000000 ) ) ;
#32 = APPROVAL_STATUS ( 'not_yet_approved' ) ;
#33 = PERSON_AND_ORGANIZATION ( #112, #210 ) ;
#34 = EDGE_LOOP ( 'NONE', ( #190, #147, #99, #106, #30 ) ) ;
#35 =( NAMED_UNIT ( * ) PLANE_ANGLE_UNIT ( ) SI_UNIT ( $, .RADIAN. ) );
#36 = PERSON_AND_ORGANIZATION_ROLE ( 'design_supplier' ) ;
#37 = LINE ( 'NONE', #168, #228 ) ;
#38 = MANIFOLD_SOLID_BREP ( 'Imported1', #212 ) ;
#39 = COORDINATED_UNIVERSAL_TIME_OFFSET ( 2, 0, .AHEAD. ) ;
#40 = FACE_OUTER_BOUND ( 'NONE', #225, .T. ) ;
#41 = AXIS2_PLACEMENT_3D ( 'NONE', #166, #230, #180 ) ;
#42 = CIRCLE ( 'NONE', #194, 12.69999999999999900 ) ;
#43 = CARTESIAN_POINT ( 'NONE',  ( 8.521886248724632300, 4.286504434314664100, -0.001050713548109133800 ) ) ;
#44 = DIRECTION ( 'NONE',  ( 0.0000000000000000000, 0.0000000000000000000, 1.000000000000000000 ) ) ;
#45 = CC_DESIGN_APPROVAL ( #217, ( #151 ) ) ;
#46 = DIRECTION ( 'NONE',  ( 1.000000000000000000, 0.0000000000000000000, 0.0000000000000000000 ) ) ;
#47 = EDGE_LOOP ( 'NONE', ( #14, #157, #233 ) ) ;
#48 = CARTESIAN_POINT ( 'NONE',  ( 12.77973570212806800, 4.286504434314663200, 0.1725040507930760700 ) ) ;
#49 = CARTESIAN_POINT ( 'NONE',  ( -12.77973570212814300, -4.286504434314674800, 0.1725040507931577000 ) ) ;
#50 = FACE_OUTER_BOUND ( 'NONE', #34, .T. ) ;
#51 = CARTESIAN_POINT ( 'NONE',  ( -12.76543076755785400, -12.85231517875435400, 0.5234495179043396900 ) ) ;
#52 = DIRECTION ( 'NONE',  ( 1.000000000000000000, -8.881784197001252300E-016, 0.0000000000000000000 ) ) ;
#53 = APPLICATION_PROTOCOL_DEFINITION ( 'international standard', 'config_control_design', 1994, #231 ) ;
#54 = DATE_AND_TIME ( #219, #29 ) ;
#55 = PERSON_AND_ORGANIZATION_ROLE ( 'creator' ) ;
#56 = APPROVAL_ROLE ( '' ) ;
#57 = APPROVAL_STATUS ( 'not_yet_approved' ) ;
#58 = AXIS2_PLACEMENT_3D ( 'NONE', #27, #46, #179 ) ;
#59 = APPROVAL_DATE_TIME ( #54, #139 ) ;
#60 = VERTEX_POINT ( 'NONE', #165 ) ;
#61 = PERSON_AND_ORGANIZATION ( #112, #210 ) ;
#62 = CARTESIAN_POINT ( 'NONE',  ( 12.69999999999999900, 2.442490654175340100E-015, 0.2571822485000679900 ) ) ;
#63 = CARTESIAN_POINT ( 'NONE',  ( 8.512347317087485300, 12.85231517875434400, 0.3500890212385653900 ) ) ;
#64 = APPROVAL_PERSON_ORGANIZATION ( #192, #139, #92 ) ;
#65 = CARTESIAN_POINT ( 'NONE',  ( 4.256615169177060800, -12.85231517875435400, 0.2633907876332108300 ) ) ;
#66 = CARTESIAN_POINT ( 'NONE',  ( 12.76543076755777600, -12.85231517875435400, 0.5234495179043134900 ) ) ;
#67 = CC_DESIGN_PERSON_AND_ORGANIZATION_ASSIGNMENT ( #78, #111, ( #159 ) ) ;
#68 = CALENDAR_DATE ( 2019, 3, 1 ) ;
#69 = ORIENTED_EDGE ( 'NONE', *, *, #144, .F. ) ;
#70 = CARTESIAN_POINT ( 'NONE',  ( 0.0000000000000000000, 26.11199999999999800, 3.000000000000000000 ) ) ;
#71 = AXIS2_PLACEMENT_3D ( 'NONE', #105, #127, #229 ) ;
#72 = CARTESIAN_POINT ( 'NONE',  ( -12.76543076755785600, 12.85231517875434400, 0.5234495179042841800 ) ) ;
#73 = CARTESIAN_POINT ( 'NONE',  ( -4.261385129752319800, 4.286504434314664100, -0.08784610114554211600 ) ) ;
#74 = DATE_AND_TIME ( #20, #12 ) ;
#75 = DATE_TIME_ROLE ( 'creation_date' ) ;
#76 = ADVANCED_FACE ( 'NONE', ( #125 ), #232, .T. ) ;
#77 = EDGE_CURVE ( 'NONE', #97, #198, #1, .T. ) ;
#78 = PERSON_AND_ORGANIZATION ( #112, #210 ) ;
#79 = LINE ( 'NONE', #62, #176 ) ;
#80 = CARTESIAN_POINT ( 'NONE',  ( 12.76543076755777900, 12.85231517875434400, 0.5234495179042579800 ) ) ;
#81 = VERTEX_POINT ( 'NONE', #8 ) ;
#82 = CC_DESIGN_PERSON_AND_ORGANIZATION_ASSIGNMENT ( #33, #205, ( #214 ) ) ;
#83 = CARTESIAN_POINT ( 'NONE',  ( 4.261385129752206100, 4.286504434314664100, -0.08784610114555176100 ) ) ;
#84 = ORIENTED_EDGE ( 'NONE', *, *, #122, .F. ) ;
#85 = CARTESIAN_POINT ( 'NONE',  ( -2.842170943040400100E-014, 12.70000000000016600, 0.2571822485000721500 ) ) ;
#86 = DIRECTION ( 'NONE',  ( 0.0000000000000000000, 0.0000000000000000000, 1.000000000000000000 ) ) ;
#87 = DIRECTION ( 'NONE',  ( -0.0000000000000000000, -0.0000000000000000000, -1.000000000000000000 ) ) ;
#88 = FACE_OUTER_BOUND ( 'NONE', #163, .T. ) ;
#89 = DIRECTION ( 'NONE',  ( 0.0000000000000000000, 0.0000000000000000000, 1.000000000000000000 ) ) ;
#90 = CARTESIAN_POINT ( 'NONE',  ( -1.023486850826316200E-013, 12.85231517875434400, 0.2633907876331639800 ) ) ;
#91 = PERSON_AND_ORGANIZATION_ROLE ( 'classification_officer' ) ;
#92 = APPROVAL_ROLE ( '' ) ;
#93 = COORDINATED_UNIVERSAL_TIME_OFFSET ( 2, 0, .AHEAD. ) ;
#94 = ORIENTED_EDGE ( 'NONE', *, *, #158, .F. ) ;
#95 = CC_DESIGN_DATE_AND_TIME_ASSIGNMENT ( #162, #75, ( #160 ) ) ;
#96 = SECURITY_CLASSIFICATION_LEVEL ( 'unclassified' ) ;
#97 = VERTEX_POINT ( 'NONE', #28 ) ;
#98 = AXIS2_PLACEMENT_3D ( 'NONE', #200, #89, #235 ) ;
#99 = ORIENTED_EDGE ( 'NONE', *, *, #138, .T. ) ;
#100 = ORIENTED_EDGE ( 'NONE', *, *, #26, .T. ) ;
#101 = DIRECTION ( 'NONE',  ( 0.0000000000000000000, 0.0000000000000000000, 1.000000000000000000 ) ) ;
#102 = CARTESIAN_POINT ( 'NONE',  ( 8.512347317087481700, -12.85231517875435400, 0.3500890212386210100 ) ) ;
#103 = DIRECTION ( 'NONE',  ( 0.0000000000000000000, 0.0000000000000000000, 1.000000000000000000 ) ) ;
#104 = APPROVAL_PERSON_ORGANIZATION ( #189, #170, #56 ) ;
#105 = CARTESIAN_POINT ( 'NONE',  ( 4.996003610813200500E-016, 2.442490654175340100E-015, 0.2571822485000679900 ) ) ;
#106 = ORIENTED_EDGE ( 'NONE', *, *, #26, .F. ) ;
#107 = AXIS2_PLACEMENT_3D ( 'NONE', #215, #196, #213 ) ;
#108 = AXIS2_PLACEMENT_3D ( 'NONE', #143, #101, #209 ) ;
#109 = CARTESIAN_POINT ( 'NONE',  ( -4.256615169177175400, -12.85231517875435400, 0.2633907876332204900 ) ) ;
#110 = PERSON_AND_ORGANIZATION ( #112, #210 ) ;
#111 = PERSON_AND_ORGANIZATION_ROLE ( 'design_owner' ) ;
#112 = PERSON ( 'UNSPECIFIED', 'UNSPECIFIED', 'UNSPECIFIED', ('UNSPECIFIED'), ('UNSPECIFIED'), ('UNSPECIFIED') ) ;
#113 = APPROVAL_ROLE ( '' ) ;
#114 = APPROVAL_DATE_TIME ( #74, #217 ) ;
#115 = VERTEX_POINT ( 'NONE', #24 ) ;
#116 = ADVANCED_FACE ( 'NONE', ( #50 ), #132, .T. ) ;
#117 =( BOUNDED_SURFACE ( )  B_SPLINE_SURFACE ( 3, 3, ( 
 ( #51, #211, #109, #150 ),
 ( #49, #184, #149, #182 ),
 ( #128, #169, #73, #130 ),
 ( #72, #199, #183, #90 ) ),
 .UNSPECIFIED., .F., .F., .F. ) 
 B_SPLINE_SURFACE_WITH_KNOTS ( ( 4, 4 ),
 ( 4, 4 ),
 ( 0.0000000000000000000, 1.000000000000000000 ),
 ( 0.0000000000000000000, 1.000000000000000000 ),
 .UNSPECIFIED. ) 
 GEOMETRIC_REPRESENTATION_ITEM ( )  RATIONAL_B_SPLINE_SURFACE ( (
 ( 1.000000000000000000, 0.9998617021222139200, 0.9998617021222139200, 1.000000000000000000),
 ( 0.9994402490965186300, 0.9993020286310946300, 0.9993020286310946300, 0.9994402490965186300),
 ( 0.9994402490965186300, 0.9993020286310946300, 0.9993020286310946300, 0.9994402490965186300),
 ( 1.000000000000000000, 0.9998617021222139200, 0.9998617021222139200, 1.000000000000000000) ) ) 
 REPRESENTATION_ITEM ( '' )  SURFACE ( )  );
#118 = ADVANCED_FACE ( 'NONE', ( #88 ), #201, .T. ) ;
#119 = LOCAL_TIME ( 12, 30, 55.00000000000000000, #39 ) ;
#120 = VERTEX_POINT ( 'NONE', #226 ) ;
#121 = AXIS2_PLACEMENT_3D ( 'NONE', #153, #31, #52 ) ;
#122 = EDGE_CURVE ( 'NONE', #115, #60, #37, .T. ) ;
#123 = CARTESIAN_POINT ( 'NONE',  ( 4.261385129752206100, -4.286504434314675600, -0.08784610114549654100 ) ) ;
#124 = DATE_AND_TIME ( #7, #161 ) ;
#125 = FACE_OUTER_BOUND ( 'NONE', #47, .T. ) ;
#126 = DIRECTION ( 'NONE',  ( -0.0000000000000000000, -0.0000000000000000000, -1.000000000000000000 ) ) ;
#127 = DIRECTION ( 'NONE',  ( -0.0000000000000000000, -0.0000000000000000000, -1.000000000000000000 ) ) ;
#128 = CARTESIAN_POINT ( 'NONE',  ( -12.77973570212814300, 4.286504434314663200, 0.1725040507931024100 ) ) ;
#129 = COORDINATED_UNIVERSAL_TIME_OFFSET ( 2, 0, .AHEAD. ) ;
#130 = CARTESIAN_POINT ( 'NONE',  ( -1.023486850826316100E-013, 4.286504434314663200, -0.08784610114554308700 ) ) ;
#131 = COORDINATED_UNIVERSAL_TIME_OFFSET ( 2, 0, .AHEAD. ) ;
#132 = CYLINDRICAL_SURFACE ( 'NONE', #5, 12.69999999999999900 ) ;
#133 = APPROVAL_STATUS ( 'not_yet_approved' ) ;
#134 =( NAMED_UNIT ( * ) SI_UNIT ( $, .STERADIAN. ) SOLID_ANGLE_UNIT ( ) );
#135 = CC_DESIGN_PERSON_AND_ORGANIZATION_ASSIGNMENT ( #203, #55, ( #160 ) ) ;
#136 = PRODUCT_DEFINITION_SHAPE ( 'NONE', 'NONE',  #160 ) ;
#137 = FACE_OUTER_BOUND ( 'NONE', #152, .T. ) ;
#138 = EDGE_CURVE ( 'NONE', #60, #120, #187, .T. ) ;
#139 = APPROVAL ( #32, 'UNSPECIFIED' ) ;
#140 = ORIENTED_EDGE ( 'NONE', *, *, #138, .F. ) ;
#141 = CIRCLE ( 'NONE', #107, 12.69999999999999900 ) ;
#142 = CARTESIAN_POINT ( 'NONE',  ( -2.842170943040400100E-014, -12.85231517875435400, 0.2633907876332108900 ) ) ;
#143 = CARTESIAN_POINT ( 'NONE',  ( 4.996003610813200500E-016, 2.442490654175340100E-015, 0.2571822485000679900 ) ) ;
#144 = EDGE_CURVE ( 'NONE', #97, #115, #6, .T. ) ;
#145 = CALENDAR_DATE ( 2019, 3, 1 ) ;
#146 = DIRECTION ( 'NONE',  ( 0.0000000000000000000, 0.0000000000000000000, 1.000000000000000000 ) ) ;
#147 = ORIENTED_EDGE ( 'NONE', *, *, #122, .T. ) ;
#148 = CARTESIAN_POINT ( 'NONE',  ( 12.77973570212806600, -4.286504434314674800, 0.1725040507931312500 ) ) ;
#149 = CARTESIAN_POINT ( 'NONE',  ( -4.261385129752320600, -4.286504434314675600, -0.08784610114548684100 ) ) ;
#150 = CARTESIAN_POINT ( 'NONE',  ( -1.040834085586084300E-013, -12.85231517875435400, 0.2633907876332194900 ) ) ;
#151 = SECURITY_CLASSIFICATION ( '', '', #96 ) ;
#152 = EDGE_LOOP ( 'NONE', ( #191, #220, #22 ) ) ;
#153 = CARTESIAN_POINT ( 'NONE',  ( 4.996003610813200500E-016, 2.442490654175340100E-015, 0.2571822485000679900 ) ) ;
#154 = DIRECTION ( 'NONE',  ( 1.000000000000000000, 8.881784197001252300E-016, 0.0000000000000000000 ) ) ;
#155 = APPROVAL_PERSON_ORGANIZATION ( #185, #217, #113 ) ;
#156 = CC_DESIGN_PERSON_AND_ORGANIZATION_ASSIGNMENT ( #110, #91, ( #151 ) ) ;
#157 = ORIENTED_EDGE ( 'NONE', *, *, #77, .T. ) ;
#158 = EDGE_CURVE ( 'NONE', #81, #97, #204, .T. ) ;
#159 = PRODUCT ( '110-5225E CaF2 pl-cx 25.4 F750', '110-5225E CaF2 pl-cx 25.4 F750', '', ( #234 ) ) ;
#160 = PRODUCT_DEFINITION ( 'UNKNOWN', '', #214, #208 ) ;
#161 = LOCAL_TIME ( 12, 30, 55.00000000000000000, #93 ) ;
#162 = DATE_AND_TIME ( #145, #119 ) ;
#163 = EDGE_LOOP ( 'NONE', ( #167, #140 ) ) ;
#164 = DATE_AND_TIME ( #68, #172 ) ;
#165 = CARTESIAN_POINT ( 'NONE',  ( -12.69999999999999900, 3.997792089092478900E-015, 3.000000000000000000 ) ) ;
#166 = CARTESIAN_POINT ( 'NONE',  ( 4.996003610813200500E-016, 2.442490654175340100E-015, 0.2571822485000679900 ) ) ;
#167 = ORIENTED_EDGE ( 'NONE', *, *, #171, .F. ) ;
#168 = CARTESIAN_POINT ( 'NONE',  ( -12.69999999999999900, 3.997792089092478900E-015, 0.2571822485000679900 ) ) ;
#169 = CARTESIAN_POINT ( 'NONE',  ( -8.521886248724728200, 4.286504434314664100, -0.001050713548082408200 ) ) ;
#170 = APPROVAL ( #133, 'UNSPECIFIED' ) ;
#171 = EDGE_CURVE ( 'NONE', #120, #60, #141, .T. ) ;
#172 = LOCAL_TIME ( 12, 30, 55.00000000000000000, #131 ) ;
#173 =( GEOMETRIC_REPRESENTATION_CONTEXT ( 3 ) GLOBAL_UNCERTAINTY_ASSIGNED_CONTEXT ( ( #13 ) ) GLOBAL_UNIT_ASSIGNED_CONTEXT ( ( #186, #35, #134 ) ) REPRESENTATION_CONTEXT ( 'NONE', 'WORKASPACE' ) );
#174 = ADVANCED_BREP_SHAPE_REPRESENTATION ( '110-5225E CaF2 pl-cx 25.4 F750', ( #38, #98 ), #173 ) ;
#175 = APPROVAL_DATE_TIME ( #164, #170 ) ;
#176 = VECTOR ( 'NONE', #44, 1000.000000000000000 ) ;
#177 = CARTESIAN_POINT ( 'NONE',  ( -2.842170943040400100E-014, 12.85231517875434400, 0.2633907876331553800 ) ) ;
#178 = CC_DESIGN_PERSON_AND_ORGANIZATION_ASSIGNMENT ( #61, #36, ( #214 ) ) ;
#179 = DIRECTION ( 'NONE',  ( 0.0000000000000000000, -1.000000000000000000, -7.078246889545148300E-016 ) ) ;
#180 = DIRECTION ( 'NONE',  ( 1.000000000000000000, 0.0000000000000000000, 0.0000000000000000000 ) ) ;
#181 = CARTESIAN_POINT ( 'NONE',  ( 4.996003610813200500E-016, 2.442490654175340100E-015, 0.2571822485000679900 ) ) ;
#182 = CARTESIAN_POINT ( 'NONE',  ( -1.040834085586084000E-013, -4.286504434314674800, -0.08784610114548784000 ) ) ;
#183 = CARTESIAN_POINT ( 'NONE',  ( -4.256615169177174500, 12.85231517875434400, 0.2633907876331650900 ) ) ;
#184 = CARTESIAN_POINT ( 'NONE',  ( -8.521886248724728200, -4.286504434314675600, -0.001050713548027113900 ) ) ;
#185 = PERSON_AND_ORGANIZATION ( #112, #210 ) ;
#186 =( LENGTH_UNIT ( ) NAMED_UNIT ( * ) SI_UNIT ( .MILLI., .METRE. ) );
#187 = CIRCLE ( 'NONE', #19, 12.69999999999999900 ) ;
#188 = CC_DESIGN_DATE_AND_TIME_ASSIGNMENT ( #124, #221, ( #151 ) ) ;
#189 = PERSON_AND_ORGANIZATION ( #112, #210 ) ;
#190 = ORIENTED_EDGE ( 'NONE', *, *, #216, .F. ) ;
#191 = ORIENTED_EDGE ( 'NONE', *, *, #77, .F. ) ;
#192 = PERSON_AND_ORGANIZATION ( #112, #210 ) ;
#193 = CARTESIAN_POINT ( 'NONE',  ( 8.521886248724630500, -4.286504434314675600, -0.001050713548053920800 ) ) ;
#194 = AXIS2_PLACEMENT_3D ( 'NONE', #181, #87, #154 ) ;
#195 = CARTESIAN_POINT ( 'NONE',  ( -2.842170943040400100E-014, 4.286504434314663200, -0.08784610114555177500 ) ) ;
#196 = DIRECTION ( 'NONE',  ( -0.0000000000000000000, -0.0000000000000000000, -1.000000000000000000 ) ) ;
#197 = AXIS2_PLACEMENT_3D ( 'NONE', #70, #86, #15 ) ;
#198 = VERTEX_POINT ( 'NONE', #85 ) ;
#199 = CARTESIAN_POINT ( 'NONE',  ( -8.512347317087577600, 12.85231517875434400, 0.3500890212385920900 ) ) ;
#200 = CARTESIAN_POINT ( 'NONE',  ( 0.0000000000000000000, 0.0000000000000000000, 0.0000000000000000000 ) ) ;
#201 = PLANE ( 'NONE',  #197 ) ;
#202 = CC_DESIGN_APPROVAL ( #170, ( #214 ) ) ;
#203 = PERSON_AND_ORGANIZATION ( #112, #210 ) ;
#204 = CIRCLE ( 'NONE', #41, 12.69999999999999900 ) ;
#205 = PERSON_AND_ORGANIZATION_ROLE ( 'creator' ) ;
#206 = EDGE_CURVE ( 'NONE', #198, #81, #223, .T. ) ;
#207 = DIRECTION ( 'NONE',  ( 1.000000000000000000, 0.0000000000000000000, 0.0000000000000000000 ) ) ;
#208 = DESIGN_CONTEXT ( 'detailed design', #231, 'design' ) ;
#209 = DIRECTION ( 'NONE',  ( 1.000000000000000000, 0.0000000000000000000, 0.0000000000000000000 ) ) ;
#210 = ORGANIZATION ( 'UNSPECIFIED', 'UNSPECIFIED', '' ) ;
#211 = CARTESIAN_POINT ( 'NONE',  ( -8.512347317087577600, -12.85231517875435400, 0.3500890212386476600 ) ) ;
#212 = CLOSED_SHELL ( 'NONE', ( #76, #116, #222, #4, #118 ) ) ;
#213 = DIRECTION ( 'NONE',  ( 1.000000000000000000, 0.0000000000000000000, 0.0000000000000000000 ) ) ;
#214 = PRODUCT_DEFINITION_FORMATION_WITH_SPECIFIED_SOURCE ( 'ANY', '', #159, .NOT_KNOWN. ) ;
#215 = CARTESIAN_POINT ( 'NONE',  ( 4.996003610813200500E-016, 2.442490654175340100E-015, 3.000000000000000000 ) ) ;
#216 = EDGE_CURVE ( 'NONE', #115, #198, #42, .T. ) ;
#217 = APPROVAL ( #57, 'UNSPECIFIED' ) ;
#218 = APPLICATION_PROTOCOL_DEFINITION ( 'international standard', 'config_control_design', 1994, #16 ) ;
#219 = CALENDAR_DATE ( 2019, 3, 1 ) ;
#220 = ORIENTED_EDGE ( 'NONE', *, *, #144, .T. ) ;
#221 = DATE_TIME_ROLE ( 'classification_date' ) ;
#222 = ADVANCED_FACE ( 'NONE', ( #137 ), #117, .T. ) ;
#223 = CIRCLE ( 'NONE', #121, 12.69999999999999900 ) ;
#224 = CARTESIAN_POINT ( 'NONE',  ( 4.256615169177061700, 12.85231517875434400, 0.2633907876331554300 ) ) ;
#225 = EDGE_LOOP ( 'NONE', ( #84, #69, #94, #100, #18 ) ) ;
#226 = CARTESIAN_POINT ( 'NONE',  ( 12.69999999999999900, 2.442490654175340100E-015, 3.000000000000000000 ) ) ;
#227 = DIRECTION ( 'NONE',  ( 1.000000000000000000, 0.0000000000000000000, 0.0000000000000000000 ) ) ;
#228 = VECTOR ( 'NONE', #103, 1000.000000000000000 ) ;
#229 = DIRECTION ( 'NONE',  ( 1.000000000000000000, 8.881784197001252300E-016, 0.0000000000000000000 ) ) ;
#230 = DIRECTION ( 'NONE',  ( -0.0000000000000000000, -0.0000000000000000000, -1.000000000000000000 ) ) ;
#231 = APPLICATION_CONTEXT ( 'configuration controlled 3d designs of mechanical parts and assemblies' ) ;
#232 =( BOUNDED_SURFACE ( )  B_SPLINE_SURFACE ( 3, 3, ( 
 ( #142, #65, #102, #66 ),
 ( #25, #123, #193, #148 ),
 ( #195, #83, #43, #48 ),
 ( #177, #224, #63, #80 ) ),
 .UNSPECIFIED., .F., .F., .T. ) 
 B_SPLINE_SURFACE_WITH_KNOTS ( ( 4, 4 ),
 ( 4, 4 ),
 ( 0.0000000000000000000, 1.000000000000000000 ),
 ( 0.0000000000000000000, 1.000000000000000000 ),
 .UNSPECIFIED. ) 
 GEOMETRIC_REPRESENTATION_ITEM ( )  RATIONAL_B_SPLINE_SURFACE ( (
 ( 1.000000000000000000, 0.9998617021222139200, 0.9998617021222139200, 1.000000000000000000),
 ( 0.9994402490965186300, 0.9993020286310946300, 0.9993020286310946300, 0.9994402490965186300),
 ( 0.9994402490965186300, 0.9993020286310946300, 0.9993020286310946300, 0.9994402490965186300),
 ( 1.000000000000000000, 0.9998617021222139200, 0.9998617021222139200, 1.000000000000000000) ) ) 
 REPRESENTATION_ITEM ( '' )  SURFACE ( )  );
#233 = ORIENTED_EDGE ( 'NONE', *, *, #206, .T. ) ;
#234 = MECHANICAL_CONTEXT ( 'NONE', #16, 'mechanical' ) ;
#235 = DIRECTION ( 'NONE',  ( 1.000000000000000000, 0.0000000000000000000, 0.0000000000000000000 ) ) ;
ENDSEC;
END-ISO-10303-21;
