ISO-10303-21;
HEADER;
FILE_DESCRIPTION (( 'STEP AP203' ),
    '1' );
FILE_NAME ('110-5223E CaF2 pl-cx 25.4 F500.STEP',
    '2019-01-03T10:13:44',
    ( '' ),
    ( '' ),
    'SwSTEP 2.0',
    'SolidWorks 2017',
    '' );
FILE_SCHEMA (( 'CONFIG_CONTROL_DESIGN' ));
ENDSEC;

DATA;
#1 = CARTESIAN_POINT ( 'NONE',  ( 8.527426238124229800, -4.289476457133230400, -0.001601075969136364000 ) ) ;
#2 = CARTESIAN_POINT ( 'NONE',  ( 4.996003610813200500E-016, 2.442490654175340100E-015, 3.399999999999999900 ) ) ;
#3 = CLOSED_SHELL ( 'NONE', ( #84, #104, #28, #205, #156 ) ) ;
#4 = CARTESIAN_POINT ( 'NONE',  ( 12.69999999999999900, 2.442490654175340100E-015, 3.399999999999999900 ) ) ;
#5 = CARTESIAN_POINT ( 'NONE',  ( -8.505935664996352200, 12.85220893490434300, 0.5253707351733756200 ) ) ;
#6 = PERSON_AND_ORGANIZATION ( #48, #161 ) ;
#7 =( LENGTH_UNIT ( ) NAMED_UNIT ( * ) SI_UNIT ( .MILLI., .METRE. ) );
#8 = COORDINATED_UNIVERSAL_TIME_OFFSET ( 2, 0, .AHEAD. ) ;
#9 = APPROVAL_STATUS ( 'not_yet_approved' ) ;
#10 = ORIENTED_EDGE ( 'NONE', *, *, #114, .F. ) ;
#11 = APPLICATION_CONTEXT ( 'configuration controlled 3d designs of mechanical parts and assemblies' ) ;
#12 = DATE_TIME_ROLE ( 'creation_date' ) ;
#13 = CC_DESIGN_DATE_AND_TIME_ASSIGNMENT ( #189, #12, ( #133 ) ) ;
#14 = COORDINATED_UNIVERSAL_TIME_OFFSET ( 2, 0, .AHEAD. ) ;
#15 = PRODUCT ( '110-5223E CaF2 pl-cx 25.4 F500', '110-5223E CaF2 pl-cx 25.4 F500', '', ( #206 ) ) ;
#16 = EDGE_CURVE ( 'NONE', #42, #155, #145, .T. ) ;
#17 = ORIENTED_EDGE ( 'NONE', *, *, #32, .F. ) ;
#18 = CARTESIAN_POINT ( 'NONE',  ( -4.263256414560600500E-014, -4.289476457133230400, -0.1319498184464508200 ) ) ;
#19 = APPROVAL_PERSON_ORGANIZATION ( #106, #215, #100 ) ;
#20 = EDGE_LOOP ( 'NONE', ( #173, #81 ) ) ;
#21 =( BOUNDED_SURFACE ( )  B_SPLINE_SURFACE ( 3, 3, ( 
 ( #73, #191, #162, #89 ),
 ( #230, #72, #193, #88 ),
 ( #233, #235, #126, #30 ),
 ( #31, #5, #112, #164 ) ),
 .UNSPECIFIED., .F., .F., .F. ) 
 B_SPLINE_SURFACE_WITH_KNOTS ( ( 4, 4 ),
 ( 4, 4 ),
 ( 0.0000000000000000000, 1.000000000000000000 ),
 ( 0.0000000000000000000, 1.000000000000000000 ),
 .UNSPECIFIED. ) 
 GEOMETRIC_REPRESENTATION_ITEM ( )  RATIONAL_B_SPLINE_SURFACE ( (
 ( 1.000000000000000000, 0.9996885308617633500, 0.9996885308617633500, 1.000000000000000000),
 ( 0.9987395169971966500, 0.9984284404605146000, 0.9984284404605146000, 0.9987395169971966500),
 ( 0.9987395169971966500, 0.9984284404605146000, 0.9984284404605146000, 0.9987395169971966500),
 ( 1.000000000000000000, 0.9996885308617633500, 0.9996885308617633500, 1.000000000000000000) ) ) 
 REPRESENTATION_ITEM ( '' )  SURFACE ( )  );
#22 = ORIENTED_EDGE ( 'NONE', *, *, #200, .T. ) ;
#23 = PRODUCT_DEFINITION_FORMATION_WITH_SPECIFIED_SOURCE ( 'ANY', '', #15, .NOT_KNOWN. ) ;
#24 = PLANE ( 'NONE',  #150 ) ;
#25 = CARTESIAN_POINT ( 'NONE',  ( -4.263256414560599900E-014, -12.70000000000001400, 0.3860330500136380200 ) ) ;
#26 = CIRCLE ( 'NONE', #52, 209.0999999999999900 ) ;
#27 = APPROVAL_ROLE ( '' ) ;
#28 = ADVANCED_FACE ( 'NONE', ( #55 ), #21, .T. ) ;
#29 = DIRECTION ( 'NONE',  ( 0.0000000000000000000, 0.0000000000000000000, 1.000000000000000000 ) ) ;
#30 = CARTESIAN_POINT ( 'NONE',  ( -9.020562075079398200E-014, 4.289476457133268600, -0.1319498184465034700 ) ) ;
#31 = CARTESIAN_POINT ( 'NONE',  ( -12.75194922144730600, 12.85220893490434000, 0.7852897259840452300 ) ) ;
#32 = EDGE_CURVE ( 'NONE', #168, #42, #135, .T. ) ;
#33 = DIRECTION ( 'NONE',  ( 1.000000000000000000, 0.0000000000000000000, 0.0000000000000000000 ) ) ;
#34 = CARTESIAN_POINT ( 'NONE',  ( -4.263256414560600500E-014, 4.289476457133266900, -0.1319498184464779300 ) ) ;
#35 = DIRECTION ( 'NONE',  ( -0.0000000000000000000, -0.0000000000000000000, -1.000000000000000000 ) ) ;
#36 = CARTESIAN_POINT ( 'NONE',  ( -4.263256414560599900E-014, -12.85220893490430200, 0.3953504938292995400 ) ) ;
#37 = DATE_TIME_ROLE ( 'classification_date' ) ;
#38 = PRODUCT_DEFINITION_SHAPE ( 'NONE', 'NONE',  #133 ) ;
#39 = CC_DESIGN_SECURITY_CLASSIFICATION ( #226, ( #23 ) ) ;
#40 = CARTESIAN_POINT ( 'NONE',  ( 0.0000000000000000000, 26.11199999999999800, 3.399999999999999900 ) ) ;
#41 = AXIS2_PLACEMENT_3D ( 'NONE', #2, #151, #59 ) ;
#42 = VERTEX_POINT ( 'NONE', #208 ) ;
#43 = DIRECTION ( 'NONE',  ( 1.000000000000000000, 0.0000000000000000000, 0.0000000000000000000 ) ) ;
#44 = ORIENTED_EDGE ( 'NONE', *, *, #123, .F. ) ;
#45 = APPROVAL_STATUS ( 'not_yet_approved' ) ;
#46 = APPROVAL ( #45, 'UNSPECIFIED' ) ;
#47 = CALENDAR_DATE ( 2019, 3, 1 ) ;
#48 = PERSON ( 'UNSPECIFIED', 'UNSPECIFIED', 'UNSPECIFIED', ('UNSPECIFIED'), ('UNSPECIFIED'), ('UNSPECIFIED') ) ;
#49 = AXIS2_PLACEMENT_3D ( 'NONE', #169, #65, #185 ) ;
#50 = APPROVAL_PERSON_ORGANIZATION ( #228, #115, #225 ) ;
#51 = CIRCLE ( 'NONE', #41, 12.69999999999999900 ) ;
#52 = AXIS2_PLACEMENT_3D ( 'NONE', #60, #43, #99 ) ;
#53 = DIRECTION ( 'NONE',  ( 1.000000000000000000, 8.881784197001252300E-016, 0.0000000000000000000 ) ) ;
#54 = APPROVAL_PERSON_ORGANIZATION ( #170, #46, #27 ) ;
#55 = FACE_OUTER_BOUND ( 'NONE', #87, .T. ) ;
#56 = CARTESIAN_POINT ( 'NONE',  ( 12.78416751089368100, 4.289476457133266900, 0.2589746101539781600 ) ) ;
#57 = PERSON_AND_ORGANIZATION_ROLE ( 'design_supplier' ) ;
#58 =( BOUNDED_SURFACE ( )  B_SPLINE_SURFACE ( 3, 3, ( 
 ( #36, #148, #129, #94 ),
 ( #18, #167, #1, #165 ),
 ( #34, #166, #181, #56 ),
 ( #78, #198, #179, #216 ) ),
 .UNSPECIFIED., .F., .F., .F. ) 
 B_SPLINE_SURFACE_WITH_KNOTS ( ( 4, 4 ),
 ( 4, 4 ),
 ( 0.0000000000000000000, 1.000000000000000000 ),
 ( 0.0000000000000000000, 1.000000000000000000 ),
 .UNSPECIFIED. ) 
 GEOMETRIC_REPRESENTATION_ITEM ( )  RATIONAL_B_SPLINE_SURFACE ( (
 ( 1.000000000000000000, 0.9996885308617633500, 0.9996885308617633500, 1.000000000000000000),
 ( 0.9987395169971966500, 0.9984284404605146000, 0.9984284404605146000, 0.9987395169971966500),
 ( 0.9987395169971966500, 0.9984284404605146000, 0.9984284404605146000, 0.9987395169971966500),
 ( 1.000000000000000000, 0.9996885308617633500, 0.9996885308617633500, 1.000000000000000000) ) ) 
 REPRESENTATION_ITEM ( '' )  SURFACE ( )  );
#59 = DIRECTION ( 'NONE',  ( 1.000000000000000000, 0.0000000000000000000, 0.0000000000000000000 ) ) ;
#60 = CARTESIAN_POINT ( 'NONE',  ( -4.263256414560599900E-014, 2.842170943040400100E-014, 209.0999999999999900 ) ) ;
#61 = PERSON_AND_ORGANIZATION_ROLE ( 'creator' ) ;
#62 = CC_DESIGN_APPROVAL ( #46, ( #23 ) ) ;
#63 = COORDINATED_UNIVERSAL_TIME_OFFSET ( 2, 0, .AHEAD. ) ;
#64 = DIRECTION ( 'NONE',  ( 1.000000000000000000, 0.0000000000000000000, 0.0000000000000000000 ) ) ;
#65 = DIRECTION ( 'NONE',  ( -0.0000000000000000000, -0.0000000000000000000, -1.000000000000000000 ) ) ;
#66 = DATE_AND_TIME ( #153, #67 ) ;
#67 = LOCAL_TIME ( 12, 13, 44.00000000000000000, #194 ) ;
#68 = EDGE_LOOP ( 'NONE', ( #44, #207, #197, #125, #17 ) ) ;
#69 = CC_DESIGN_PERSON_AND_ORGANIZATION_ASSIGNMENT ( #74, #96, ( #226 ) ) ;
#70 = CARTESIAN_POINT ( 'NONE',  ( 4.996003610813200500E-016, 2.442490654175340100E-015, 0.3860330500136360300 ) ) ;
#71 = ORIENTED_EDGE ( 'NONE', *, *, #137, .T. ) ;
#72 = CARTESIAN_POINT ( 'NONE',  ( -8.527426238124274200, -4.289476457133230400, -0.001601075969166125400 ) ) ;
#73 = CARTESIAN_POINT ( 'NONE',  ( -12.75194922144730500, -12.85220893490430200, 0.7852897259840729800 ) ) ;
#74 = PERSON_AND_ORGANIZATION ( #48, #161 ) ;
#75 = CYLINDRICAL_SURFACE ( 'NONE', #223, 12.69999999999999900 ) ;
#76 = EDGE_CURVE ( 'NONE', #213, #102, #51, .T. ) ;
#77 = SECURITY_CLASSIFICATION_LEVEL ( 'unclassified' ) ;
#78 = CARTESIAN_POINT ( 'NONE',  ( -4.263256414560599900E-014, 12.85220893490434000, 0.3953504938292717900 ) ) ;
#79 = ORIENTED_EDGE ( 'NONE', *, *, #128, .T. ) ;
#80 = DIRECTION ( 'NONE',  ( 0.0000000000000000000, 0.0000000000000000000, 1.000000000000000000 ) ) ;
#81 = ORIENTED_EDGE ( 'NONE', *, *, #76, .F. ) ;
#82 =( NAMED_UNIT ( * ) SI_UNIT ( $, .STERADIAN. ) SOLID_ANGLE_UNIT ( ) );
#83 = DIRECTION ( 'NONE',  ( 1.000000000000000000, 0.0000000000000000000, 0.0000000000000000000 ) ) ;
#84 = ADVANCED_FACE ( 'NONE', ( #227 ), #58, .T. ) ;
#85 = APPROVAL_STATUS ( 'not_yet_approved' ) ;
#86 = CC_DESIGN_PERSON_AND_ORGANIZATION_ASSIGNMENT ( #6, #61, ( #23 ) ) ;
#87 = EDGE_LOOP ( 'NONE', ( #95, #210, #143 ) ) ;
#88 = CARTESIAN_POINT ( 'NONE',  ( -9.194034422677076300E-014, -4.289476457133229600, -0.1319498184464764600 ) ) ;
#89 = CARTESIAN_POINT ( 'NONE',  ( -9.194034422677077600E-014, -12.85220893490430200, 0.3953504938292740100 ) ) ;
#90 = APPROVAL_DATE_TIME ( #117, #115 ) ;
#91 = EDGE_LOOP ( 'NONE', ( #178, #79, #184 ) ) ;
#92 =( GEOMETRIC_REPRESENTATION_CONTEXT ( 3 ) GLOBAL_UNCERTAINTY_ASSIGNED_CONTEXT ( ( #201 ) ) GLOBAL_UNIT_ASSIGNED_CONTEXT ( ( #7, #103, #82 ) ) REPRESENTATION_CONTEXT ( 'NONE', 'WORKASPACE' ) );
#93 = DIRECTION ( 'NONE',  ( 0.0000000000000000000, 0.0000000000000000000, 1.000000000000000000 ) ) ;
#94 = CARTESIAN_POINT ( 'NONE',  ( 12.75194922144730300, -12.85220893490430200, 0.7852897259841070700 ) ) ;
#95 = ORIENTED_EDGE ( 'NONE', *, *, #128, .F. ) ;
#96 = PERSON_AND_ORGANIZATION_ROLE ( 'classification_officer' ) ;
#97 = DIRECTION ( 'NONE',  ( 1.000000000000000000, 0.0000000000000000000, 0.0000000000000000000 ) ) ;
#98 = LOCAL_TIME ( 12, 13, 44.00000000000000000, #119 ) ;
#99 = DIRECTION ( 'NONE',  ( 0.0000000000000000000, -1.000000000000000000, -7.964297163738569400E-016 ) ) ;
#100 = APPROVAL_ROLE ( '' ) ;
#101 = AXIS2_PLACEMENT_3D ( 'NONE', #118, #202, #222 ) ;
#102 = VERTEX_POINT ( 'NONE', #4 ) ;
#103 =( NAMED_UNIT ( * ) PLANE_ANGLE_UNIT ( ) SI_UNIT ( $, .RADIAN. ) );
#104 = ADVANCED_FACE ( 'NONE', ( #171 ), #75, .T. ) ;
#105 = APPROVAL_DATE_TIME ( #66, #46 ) ;
#106 = PERSON_AND_ORGANIZATION ( #48, #161 ) ;
#107 = VECTOR ( 'NONE', #152, 1000.000000000000000 ) ;
#108 = ADVANCED_BREP_SHAPE_REPRESENTATION ( '110-5223E CaF2 pl-cx 25.4 F500', ( #231, #192 ), #92 ) ;
#109 = PERSON_AND_ORGANIZATION ( #48, #161 ) ;
#110 = AXIS2_PLACEMENT_3D ( 'NONE', #70, #124, #211 ) ;
#111 = DIRECTION ( 'NONE',  ( -0.0000000000000000000, -0.0000000000000000000, -1.000000000000000000 ) ) ;
#112 = CARTESIAN_POINT ( 'NONE',  ( -4.253961565805468600, 12.85220893490434300, 0.3953504938292472000 ) ) ;
#113 = PERSON_AND_ORGANIZATION ( #48, #161 ) ;
#114 = EDGE_CURVE ( 'NONE', #155, #229, #122, .T. ) ;
#115 = APPROVAL ( #85, 'UNSPECIFIED' ) ;
#116 = DIRECTION ( 'NONE',  ( 0.0000000000000000000, 0.0000000000000000000, 1.000000000000000000 ) ) ;
#117 = DATE_AND_TIME ( #177, #186 ) ;
#118 = CARTESIAN_POINT ( 'NONE',  ( 4.996003610813200500E-016, 2.442490654175340100E-015, 0.3860330500136360300 ) ) ;
#119 = COORDINATED_UNIVERSAL_TIME_OFFSET ( 2, 0, .AHEAD. ) ;
#120 = ORIENTED_EDGE ( 'NONE', *, *, #174, .F. ) ;
#121 = PERSON_AND_ORGANIZATION_ROLE ( 'design_owner' ) ;
#122 = CIRCLE ( 'NONE', #176, 12.69999999999999900 ) ;
#123 = EDGE_CURVE ( 'NONE', #229, #168, #138, .T. ) ;
#124 = DIRECTION ( 'NONE',  ( -0.0000000000000000000, -0.0000000000000000000, -1.000000000000000000 ) ) ;
#125 = ORIENTED_EDGE ( 'NONE', *, *, #137, .F. ) ;
#126 = CARTESIAN_POINT ( 'NONE',  ( -4.264709363074792300, 4.289476457133267800, -0.1319498184465025000 ) ) ;
#127 = CC_DESIGN_APPROVAL ( #215, ( #226 ) ) ;
#128 = EDGE_CURVE ( 'NONE', #155, #168, #26, .T. ) ;
#129 = CARTESIAN_POINT ( 'NONE',  ( 8.505935664996306000, -12.85220893490430400, 0.5253707351734330200 ) ) ;
#130 = EDGE_LOOP ( 'NONE', ( #120, #10, #187, #71, #22 ) ) ;
#131 = SHAPE_DEFINITION_REPRESENTATION ( #38, #108 ) ;
#132 = CARTESIAN_POINT ( 'NONE',  ( 4.996003610813200500E-016, 2.442490654175340100E-015, 0.3860330500136360300 ) ) ;
#133 = PRODUCT_DEFINITION ( 'UNKNOWN', '', #23, #195 ) ;
#134 = APPROVAL_DATE_TIME ( #203, #215 ) ;
#135 = CIRCLE ( 'NONE', #163, 12.69999999999999900 ) ;
#136 = APPLICATION_CONTEXT ( 'configuration controlled 3d designs of mechanical parts and assemblies' ) ;
#137 = EDGE_CURVE ( 'NONE', #42, #102, #204, .T. ) ;
#138 = CIRCLE ( 'NONE', #101, 12.69999999999999900 ) ;
#139 = PERSON_AND_ORGANIZATION_ROLE ( 'creator' ) ;
#140 = CARTESIAN_POINT ( 'NONE',  ( -12.69999999999999900, 3.997792089092478900E-015, 0.3860330500136360300 ) ) ;
#141 = CC_DESIGN_DATE_AND_TIME_ASSIGNMENT ( #234, #37, ( #226 ) ) ;
#142 = LOCAL_TIME ( 12, 13, 44.00000000000000000, #8 ) ;
#143 = ORIENTED_EDGE ( 'NONE', *, *, #123, .T. ) ;
#144 = CALENDAR_DATE ( 2019, 3, 1 ) ;
#145 = CIRCLE ( 'NONE', #110, 12.69999999999999900 ) ;
#146 = PERSON_AND_ORGANIZATION ( #48, #161 ) ;
#147 = CARTESIAN_POINT ( 'NONE',  ( 12.69999999999999900, 2.442490654175340100E-015, 0.3860330500136360300 ) ) ;
#148 = CARTESIAN_POINT ( 'NONE',  ( 4.253961565805378000, -12.85220893490430400, 0.3953504938292995400 ) ) ;
#149 = PRODUCT_RELATED_PRODUCT_CATEGORY ( 'detail', '', ( #15 ) ) ;
#150 = AXIS2_PLACEMENT_3D ( 'NONE', #40, #224, #154 ) ;
#151 = DIRECTION ( 'NONE',  ( -0.0000000000000000000, -0.0000000000000000000, -1.000000000000000000 ) ) ;
#152 = DIRECTION ( 'NONE',  ( 0.0000000000000000000, 0.0000000000000000000, 1.000000000000000000 ) ) ;
#153 = CALENDAR_DATE ( 2019, 3, 1 ) ;
#154 = DIRECTION ( 'NONE',  ( 1.000000000000000000, 0.0000000000000000000, -0.0000000000000000000 ) ) ;
#155 = VERTEX_POINT ( 'NONE', #25 ) ;
#156 = ADVANCED_FACE ( 'NONE', ( #209 ), #24, .T. ) ;
#157 = CARTESIAN_POINT ( 'NONE',  ( -12.69999999999999900, 3.997792089092478900E-015, 3.399999999999999900 ) ) ;
#158 = APPLICATION_PROTOCOL_DEFINITION ( 'international standard', 'config_control_design', 1994, #11 ) ;
#159 = LINE ( 'NONE', #219, #107 ) ;
#160 = AXIS2_PLACEMENT_3D ( 'NONE', #199, #80, #64 ) ;
#161 = ORGANIZATION ( 'UNSPECIFIED', 'UNSPECIFIED', '' ) ;
#162 = CARTESIAN_POINT ( 'NONE',  ( -4.253961565805467700, -12.85220893490430400, 0.3953504938292750100 ) ) ;
#163 = AXIS2_PLACEMENT_3D ( 'NONE', #132, #111, #97 ) ;
#164 = CARTESIAN_POINT ( 'NONE',  ( -9.194034422677077600E-014, 12.85220893490434000, 0.3953504938292461400 ) ) ;
#165 = CARTESIAN_POINT ( 'NONE',  ( 12.78416751089367800, -4.289476457133230400, 0.2589746101540051900 ) ) ;
#166 = CARTESIAN_POINT ( 'NONE',  ( 4.264709363074703500, 4.289476457133266900, -0.1319498184464778800 ) ) ;
#167 = CARTESIAN_POINT ( 'NONE',  ( 4.264709363074703500, -4.289476457133230400, -0.1319498184464508200 ) ) ;
#168 = VERTEX_POINT ( 'NONE', #182 ) ;
#169 = CARTESIAN_POINT ( 'NONE',  ( 4.996003610813200500E-016, 2.442490654175340100E-015, 3.399999999999999900 ) ) ;
#170 = PERSON_AND_ORGANIZATION ( #48, #161 ) ;
#171 = FACE_OUTER_BOUND ( 'NONE', #68, .T. ) ;
#172 = APPLICATION_PROTOCOL_DEFINITION ( 'international standard', 'config_control_design', 1994, #136 ) ;
#173 = ORIENTED_EDGE ( 'NONE', *, *, #200, .F. ) ;
#174 = EDGE_CURVE ( 'NONE', #229, #213, #159, .T. ) ;
#175 = VECTOR ( 'NONE', #93, 1000.000000000000000 ) ;
#176 = AXIS2_PLACEMENT_3D ( 'NONE', #214, #35, #53 ) ;
#177 = CALENDAR_DATE ( 2019, 3, 1 ) ;
#178 = ORIENTED_EDGE ( 'NONE', *, *, #16, .T. ) ;
#179 = CARTESIAN_POINT ( 'NONE',  ( 8.505935664996307800, 12.85220893490434300, 0.5253707351734052700 ) ) ;
#180 = CIRCLE ( 'NONE', #49, 12.69999999999999900 ) ;
#181 = CARTESIAN_POINT ( 'NONE',  ( 8.527426238124233400, 4.289476457133266900, -0.001601075969163523300 ) ) ;
#182 = CARTESIAN_POINT ( 'NONE',  ( -4.263256414560599900E-014, 12.70000000000004500, 0.3860330500136380200 ) ) ;
#183 = CALENDAR_DATE ( 2019, 3, 1 ) ;
#184 = ORIENTED_EDGE ( 'NONE', *, *, #32, .T. ) ;
#185 = DIRECTION ( 'NONE',  ( 1.000000000000000000, 0.0000000000000000000, 0.0000000000000000000 ) ) ;
#186 = LOCAL_TIME ( 12, 13, 44.00000000000000000, #14 ) ;
#187 = ORIENTED_EDGE ( 'NONE', *, *, #16, .F. ) ;
#188 = CARTESIAN_POINT ( 'NONE',  ( 0.0000000000000000000, 0.0000000000000000000, 0.0000000000000000000 ) ) ;
#189 = DATE_AND_TIME ( #144, #220 ) ;
#190 = CYLINDRICAL_SURFACE ( 'NONE', #160, 12.69999999999999900 ) ;
#191 = CARTESIAN_POINT ( 'NONE',  ( -8.505935664996352200, -12.85220893490430400, 0.5253707351734034900 ) ) ;
#192 = AXIS2_PLACEMENT_3D ( 'NONE', #188, #29, #83 ) ;
#193 = CARTESIAN_POINT ( 'NONE',  ( -4.264709363074794100, -4.289476457133229600, -0.1319498184464754600 ) ) ;
#194 = COORDINATED_UNIVERSAL_TIME_OFFSET ( 2, 0, .AHEAD. ) ;
#195 = DESIGN_CONTEXT ( 'detailed design', #11, 'design' ) ;
#196 = CC_DESIGN_PERSON_AND_ORGANIZATION_ASSIGNMENT ( #113, #121, ( #15 ) ) ;
#197 = ORIENTED_EDGE ( 'NONE', *, *, #76, .T. ) ;
#198 = CARTESIAN_POINT ( 'NONE',  ( 4.253961565805378900, 12.85220893490434300, 0.3953504938292717900 ) ) ;
#199 = CARTESIAN_POINT ( 'NONE',  ( 4.996003610813200500E-016, 2.442490654175340100E-015, 0.3860330500136360300 ) ) ;
#200 = EDGE_CURVE ( 'NONE', #102, #213, #180, .T. ) ;
#201 = UNCERTAINTY_MEASURE_WITH_UNIT (LENGTH_MEASURE( 1.000000000000000100E-005 ), #7, 'distance_accuracy_value', 'NONE');
#202 = DIRECTION ( 'NONE',  ( -0.0000000000000000000, -0.0000000000000000000, -1.000000000000000000 ) ) ;
#203 = DATE_AND_TIME ( #183, #142 ) ;
#204 = LINE ( 'NONE', #147, #175 ) ;
#205 = ADVANCED_FACE ( 'NONE', ( #221 ), #190, .T. ) ;
#206 = MECHANICAL_CONTEXT ( 'NONE', #136, 'mechanical' ) ;
#207 = ORIENTED_EDGE ( 'NONE', *, *, #174, .T. ) ;
#208 = CARTESIAN_POINT ( 'NONE',  ( 12.69999999999999900, 2.442490654175340100E-015, 0.3860330500136360300 ) ) ;
#209 = FACE_OUTER_BOUND ( 'NONE', #20, .T. ) ;
#210 = ORIENTED_EDGE ( 'NONE', *, *, #114, .T. ) ;
#211 = DIRECTION ( 'NONE',  ( 1.000000000000000000, 0.0000000000000000000, 0.0000000000000000000 ) ) ;
#212 = CC_DESIGN_PERSON_AND_ORGANIZATION_ASSIGNMENT ( #146, #57, ( #23 ) ) ;
#213 = VERTEX_POINT ( 'NONE', #157 ) ;
#214 = CARTESIAN_POINT ( 'NONE',  ( 4.996003610813200500E-016, 2.442490654175340100E-015, 0.3860330500136360300 ) ) ;
#215 = APPROVAL ( #9, 'UNSPECIFIED' ) ;
#216 = CARTESIAN_POINT ( 'NONE',  ( 12.75194922144730600, 12.85220893490434000, 0.7852897259840794200 ) ) ;
#217 = CARTESIAN_POINT ( 'NONE',  ( 4.996003610813200500E-016, 2.442490654175340100E-015, 0.3860330500136360300 ) ) ;
#218 = CC_DESIGN_APPROVAL ( #115, ( #133 ) ) ;
#219 = CARTESIAN_POINT ( 'NONE',  ( -12.69999999999999900, 3.997792089092478900E-015, 0.3860330500136360300 ) ) ;
#220 = LOCAL_TIME ( 12, 13, 44.00000000000000000, #63 ) ;
#221 = FACE_OUTER_BOUND ( 'NONE', #130, .T. ) ;
#222 = DIRECTION ( 'NONE',  ( 1.000000000000000000, 0.0000000000000000000, 0.0000000000000000000 ) ) ;
#223 = AXIS2_PLACEMENT_3D ( 'NONE', #217, #116, #33 ) ;
#224 = DIRECTION ( 'NONE',  ( 0.0000000000000000000, 0.0000000000000000000, 1.000000000000000000 ) ) ;
#225 = APPROVAL_ROLE ( '' ) ;
#226 = SECURITY_CLASSIFICATION ( '', '', #77 ) ;
#227 = FACE_OUTER_BOUND ( 'NONE', #91, .T. ) ;
#228 = PERSON_AND_ORGANIZATION ( #48, #161 ) ;
#229 = VERTEX_POINT ( 'NONE', #140 ) ;
#230 = CARTESIAN_POINT ( 'NONE',  ( -12.78416751089367900, -4.289476457133230400, 0.2589746101539709400 ) ) ;
#231 = MANIFOLD_SOLID_BREP ( 'Imported1', #3 ) ;
#232 = CC_DESIGN_PERSON_AND_ORGANIZATION_ASSIGNMENT ( #109, #139, ( #133 ) ) ;
#233 = CARTESIAN_POINT ( 'NONE',  ( -12.78416751089367900, 4.289476457133266900, 0.2589746101539440200 ) ) ;
#234 = DATE_AND_TIME ( #47, #98 ) ;
#235 = CARTESIAN_POINT ( 'NONE',  ( -8.527426238124274200, 4.289476457133266900, -0.001601075969193121800 ) ) ;
ENDSEC;
END-ISO-10303-21;
