ISO-10303-21;
HEADER;
FILE_DESCRIPTION (( 'STEP AP203' ),
    '1' );
FILE_NAME ('110-5222E CaF2 pl-cx 25.4 F300.STEP',
    '2019-01-03T08:41:44',
    ( '' ),
    ( '' ),
    'SwSTEP 2.0',
    'SolidWorks 2017',
    '' );
FILE_SCHEMA (( 'CONFIG_CONTROL_DESIGN' ));
ENDSEC;

DATA;
#1 = CARTESIAN_POINT ( 'NONE',  ( -8.545224672571770000, -4.299023413930797200, -0.002800393437724308200 ) ) ;
#2 = CARTESIAN_POINT ( 'NONE',  ( 0.0000000000000000000, 26.11199999999999800, 3.700000000000000200 ) ) ;
#3 = LOCAL_TIME ( 10, 41, 44.00000000000000000, #115 ) ;
#4 = APPROVAL ( #219, 'UNSPECIFIED' ) ;
#5 = APPROVAL_DATE_TIME ( #8, #51 ) ;
#6 = PERSON_AND_ORGANIZATION ( #127, #25 ) ;
#7 = CARTESIAN_POINT ( 'NONE',  ( 4.245447824180200900, -12.85186820706390700, 0.6597841895959465400 ) ) ;
#8 = DATE_AND_TIME ( #153, #147 ) ;
#9 = PRODUCT_DEFINITION_SHAPE ( 'NONE', 'NONE',  #79 ) ;
#10 = DIRECTION ( 'NONE',  ( -0.0000000000000000000, -0.0000000000000000000, -1.000000000000000000 ) ) ;
#11 = CC_DESIGN_DATE_AND_TIME_ASSIGNMENT ( #124, #87, ( #79 ) ) ;
#12 = DIRECTION ( 'NONE',  ( 1.000000000000000000, 0.0000000000000000000, 0.0000000000000000000 ) ) ;
#13 = CARTESIAN_POINT ( 'NONE',  ( -1.421085471520200100E-014, 2.842170943040400100E-014, 125.5000000000000000 ) ) ;
#14 = AXIS2_PLACEMENT_3D ( 'NONE', #81, #156, #212 ) ;
#15 = PERSON_AND_ORGANIZATION ( #127, #25 ) ;
#16 = CARTESIAN_POINT ( 'NONE',  ( -8.545224672571773500, 4.299023413930832800, -0.002800393437723278600 ) ) ;
#17 =( NAMED_UNIT ( * ) SI_UNIT ( $, .STERADIAN. ) SOLID_ANGLE_UNIT ( ) );
#18 = DIRECTION ( 'NONE',  ( -0.0000000000000000000, -0.0000000000000000000, -1.000000000000000000 ) ) ;
#19 = PERSON_AND_ORGANIZATION_ROLE ( 'design_supplier' ) ;
#20 = CIRCLE ( 'NONE', #114, 125.5000000000000000 ) ;
#21 = CC_DESIGN_APPROVAL ( #4, ( #24 ) ) ;
#22 = AXIS2_PLACEMENT_3D ( 'NONE', #85, #10, #176 ) ;
#23 = ORIENTED_EDGE ( 'NONE', *, *, #102, .F. ) ;
#24 = PRODUCT_DEFINITION_FORMATION_WITH_SPECIFIED_SOURCE ( 'ANY', '', #117, .NOT_KNOWN. ) ;
#25 = ORGANIZATION ( 'UNSPECIFIED', 'UNSPECIFIED', '' ) ;
#26 = CIRCLE ( 'NONE', #181, 12.69999999999999900 ) ;
#27 = DIRECTION ( 'NONE',  ( 0.0000000000000000000, 0.0000000000000000000, 1.000000000000000000 ) ) ;
#28 = CARTESIAN_POINT ( 'NONE',  ( 8.485378134434164100, -12.85186820706390700, 0.8761593083740580900 ) ) ;
#29 = CARTESIAN_POINT ( 'NONE',  ( 4.996003610813200500E-016, 2.442490654175340100E-015, 3.700000000000000200 ) ) ;
#30 = LOCAL_TIME ( 10, 41, 44.00000000000000000, #135 ) ;
#31 = CARTESIAN_POINT ( 'NONE',  ( -1.747901654925235300E-014, -4.299023413930795500, -0.2207015846657411400 ) ) ;
#32 = APPROVAL_ROLE ( '' ) ;
#33 = DIRECTION ( 'NONE',  ( 0.0000000000000000000, 0.0000000000000000000, 1.000000000000000000 ) ) ;
#34 = CARTESIAN_POINT ( 'NONE',  ( -4.245447824180249800, 12.85186820706394600, 0.6597841895959467600 ) ) ;
#35 = CARTESIAN_POINT ( 'NONE',  ( -5.030698080332740600E-014, 12.85186820706395000, 0.6597841895959456500 ) ) ;
#36 = ADVANCED_FACE ( 'NONE', ( #139 ), #41, .T. ) ;
#37 = COORDINATED_UNIVERSAL_TIME_OFFSET ( 2, 0, .AHEAD. ) ;
#38 = EDGE_CURVE ( 'NONE', #112, #93, #26, .T. ) ;
#39 = EDGE_LOOP ( 'NONE', ( #23, #221 ) ) ;
#40 = EDGE_CURVE ( 'NONE', #112, #184, #218, .T. ) ;
#41 = CYLINDRICAL_SURFACE ( 'NONE', #192, 12.69999999999999900 ) ;
#42 = CARTESIAN_POINT ( 'NONE',  ( 12.69999999999999900, 2.442490654175340100E-015, 0.6442432244311779900 ) ) ;
#43 = CALENDAR_DATE ( 2019, 3, 1 ) ;
#44 = DIRECTION ( 'NONE',  ( -0.0000000000000000000, -0.0000000000000000000, -1.000000000000000000 ) ) ;
#45 = CARTESIAN_POINT ( 'NONE',  ( -12.69999999999999900, 3.997792089092478900E-015, 3.700000000000000200 ) ) ;
#46 = DIRECTION ( 'NONE',  ( 1.000000000000000000, 0.0000000000000000000, 0.0000000000000000000 ) ) ;
#47 = DIRECTION ( 'NONE',  ( 1.000000000000000000, 0.0000000000000000000, 0.0000000000000000000 ) ) ;
#48 = APPROVAL_STATUS ( 'not_yet_approved' ) ;
#49 =( NAMED_UNIT ( * ) PLANE_ANGLE_UNIT ( ) SI_UNIT ( $, .RADIAN. ) );
#50 = CARTESIAN_POINT ( 'NONE',  ( -12.70877024436932600, 12.85186820706394600, 1.308347130477033300 ) ) ;
#51 = APPROVAL ( #108, 'UNSPECIFIED' ) ;
#52 = APPROVAL_PERSON_ORGANIZATION ( #77, #207, #201 ) ;
#53 = ADVANCED_FACE ( 'NONE', ( #211 ), #126, .T. ) ;
#54 = CIRCLE ( 'NONE', #148, 12.69999999999999900 ) ;
#55 = AXIS2_PLACEMENT_3D ( 'NONE', #233, #222, #47 ) ;
#56 = CARTESIAN_POINT ( 'NONE',  ( 4.996003610813200500E-016, 2.442490654175340100E-015, 0.6442432244311779900 ) ) ;
#57 = DATE_AND_TIME ( #202, #227 ) ;
#58 = ORIENTED_EDGE ( 'NONE', *, *, #163, .T. ) ;
#59 = DIRECTION ( 'NONE',  ( 0.0000000000000000000, 0.0000000000000000000, 1.000000000000000000 ) ) ;
#60 = DESIGN_CONTEXT ( 'detailed design', #109, 'design' ) ;
#61 = CARTESIAN_POINT ( 'NONE',  ( 12.79840395203223800, 4.299023413930836300, 0.4324356069041346300 ) ) ;
#62 = PERSON_AND_ORGANIZATION ( #127, #25 ) ;
#63 = DIRECTION ( 'NONE',  ( 0.0000000000000000000, 0.0000000000000000000, 1.000000000000000000 ) ) ;
#64 = CARTESIAN_POINT ( 'NONE',  ( -2.138567898930947000E-014, 12.70000000000004400, 0.6442432244311883100 ) ) ;
#65 = PERSON_AND_ORGANIZATION_ROLE ( 'creator' ) ;
#66 = VERTEX_POINT ( 'NONE', #133 ) ;
#67 = DIRECTION ( 'NONE',  ( 1.000000000000000000, 0.0000000000000000000, 0.0000000000000000000 ) ) ;
#68 = CC_DESIGN_PERSON_AND_ORGANIZATION_ASSIGNMENT ( #72, #182, ( #117 ) ) ;
#69 =( LENGTH_UNIT ( ) NAMED_UNIT ( * ) SI_UNIT ( .MILLI., .METRE. ) );
#70 = ORIENTED_EDGE ( 'NONE', *, *, #74, .F. ) ;
#71 = APPLICATION_CONTEXT ( 'configuration controlled 3d designs of mechanical parts and assemblies' ) ;
#72 = PERSON_AND_ORGANIZATION ( #127, #25 ) ;
#73 = VERTEX_POINT ( 'NONE', #45 ) ;
#74 = EDGE_CURVE ( 'NONE', #93, #180, #20, .T. ) ;
#75 = VECTOR ( 'NONE', #63, 1000.000000000000000 ) ;
#76 = CC_DESIGN_PERSON_AND_ORGANIZATION_ASSIGNMENT ( #62, #19, ( #24 ) ) ;
#77 = PERSON_AND_ORGANIZATION ( #127, #25 ) ;
#78 =( BOUNDED_SURFACE ( )  B_SPLINE_SURFACE ( 3, 3, ( 
 ( #140, #125, #90, #205 ),
 ( #232, #1, #142, #143 ),
 ( #128, #16, #186, #89 ),
 ( #50, #220, #34, #35 ) ),
 .UNSPECIFIED., .F., .F., .T. ) 
 B_SPLINE_SURFACE_WITH_KNOTS ( ( 4, 4 ),
 ( 4, 4 ),
 ( 0.0000000000000000000, 1.000000000000000000 ),
 ( 0.0000000000000000000, 1.000000000000000000 ),
 .UNSPECIFIED. ) 
 GEOMETRIC_REPRESENTATION_ITEM ( )  RATIONAL_B_SPLINE_SURFACE ( (
 ( 1.000000000000000000, 0.9991335795963500700, 0.9991335795963500700, 1.000000000000000000),
 ( 0.9964951703075911600, 0.9956317865598980400, 0.9956317865598980400, 0.9964951703075911600),
 ( 0.9964951703075911600, 0.9956317865598980400, 0.9956317865598980400, 0.9964951703075911600),
 ( 1.000000000000000000, 0.9991335795963500700, 0.9991335795963500700, 1.000000000000000000) ) ) 
 REPRESENTATION_ITEM ( '' )  SURFACE ( )  );
#79 = PRODUCT_DEFINITION ( 'UNKNOWN', '', #24, #60 ) ;
#80 = DIRECTION ( 'NONE',  ( 2.315424381500570500E-016, -1.000000000000000000, 0.0000000000000000000 ) ) ;
#81 = CARTESIAN_POINT ( 'NONE',  ( 4.996003610813200500E-016, 2.442490654175340100E-015, 0.6442432244311779900 ) ) ;
#82 = DIRECTION ( 'NONE',  ( 1.000000000000000000, 2.315424381500570000E-016, -3.391301625933740000E-017 ) ) ;
#83 = DATE_AND_TIME ( #43, #110 ) ;
#84 = CC_DESIGN_APPROVAL ( #207, ( #200 ) ) ;
#85 = CARTESIAN_POINT ( 'NONE',  ( 4.996003610813200500E-016, 2.442490654175340100E-015, 0.6442432244311779900 ) ) ;
#86 = EDGE_CURVE ( 'NONE', #93, #66, #92, .T. ) ;
#87 = DATE_TIME_ROLE ( 'creation_date' ) ;
#88 = ORIENTED_EDGE ( 'NONE', *, *, #121, .T. ) ;
#89 = CARTESIAN_POINT ( 'NONE',  ( -4.857225732735059200E-014, 4.299023413930832800, -0.2207015846657412500 ) ) ;
#90 = CARTESIAN_POINT ( 'NONE',  ( -4.245447824180242700, -12.85186820706391100, 0.6597841895959469800 ) ) ;
#91 = FACE_OUTER_BOUND ( 'NONE', #39, .T. ) ;
#92 = CIRCLE ( 'NONE', #174, 12.69999999999999900 ) ;
#93 = VERTEX_POINT ( 'NONE', #175 ) ;
#94 = CIRCLE ( 'NONE', #97, 12.69999999999999900 ) ;
#95 = PRODUCT_RELATED_PRODUCT_CATEGORY ( 'detail', '', ( #117 ) ) ;
#96 = UNCERTAINTY_MEASURE_WITH_UNIT (LENGTH_MEASURE( 1.000000000000000100E-005 ), #69, 'distance_accuracy_value', 'NONE');
#97 = AXIS2_PLACEMENT_3D ( 'NONE', #196, #230, #46 ) ;
#98 = PERSON_AND_ORGANIZATION ( #127, #25 ) ;
#99 = CARTESIAN_POINT ( 'NONE',  ( 12.69999999999999900, 2.442490654175340100E-015, 3.700000000000000200 ) ) ;
#100 = CARTESIAN_POINT ( 'NONE',  ( 12.79840395203224200, -4.299023413930792800, 0.4324356069041335200 ) ) ;
#101 = CARTESIAN_POINT ( 'NONE',  ( -12.69999999999999900, 3.997792089092478900E-015, 0.6442432244311779900 ) ) ;
#102 = EDGE_CURVE ( 'NONE', #184, #73, #54, .T. ) ;
#103 = CARTESIAN_POINT ( 'NONE',  ( 4.996003610813200500E-016, 2.442490654175340100E-015, 0.6442432244311779900 ) ) ;
#104 = DATE_TIME_ROLE ( 'classification_date' ) ;
#105 = COORDINATED_UNIVERSAL_TIME_OFFSET ( 2, 0, .AHEAD. ) ;
#106 = ORIENTED_EDGE ( 'NONE', *, *, #38, .F. ) ;
#107 = PERSON_AND_ORGANIZATION_ROLE ( 'classification_officer' ) ;
#108 = APPROVAL_STATUS ( 'not_yet_approved' ) ;
#109 = APPLICATION_CONTEXT ( 'configuration controlled 3d designs of mechanical parts and assemblies' ) ;
#110 = LOCAL_TIME ( 10, 41, 44.00000000000000000, #105 ) ;
#111 = ORIENTED_EDGE ( 'NONE', *, *, #102, .T. ) ;
#112 = VERTEX_POINT ( 'NONE', #215 ) ;
#113 = CC_DESIGN_PERSON_AND_ORGANIZATION_ASSIGNMENT ( #6, #107, ( #200 ) ) ;
#114 = AXIS2_PLACEMENT_3D ( 'NONE', #13, #82, #80 ) ;
#115 = COORDINATED_UNIVERSAL_TIME_OFFSET ( 2, 0, .AHEAD. ) ;
#116 = VECTOR ( 'NONE', #59, 1000.000000000000000 ) ;
#117 = PRODUCT ( '110-5222E CaF2 pl-cx 25.4 F300', '110-5222E CaF2 pl-cx 25.4 F300', '', ( #185 ) ) ;
#118 = CARTESIAN_POINT ( 'NONE',  ( 4.996003610813200500E-016, 2.442490654175340100E-015, 3.700000000000000200 ) ) ;
#119 = ORIENTED_EDGE ( 'NONE', *, *, #74, .T. ) ;
#120 = CARTESIAN_POINT ( 'NONE',  ( 12.70877024436930500, 12.85186820706395300, 1.308347130477034000 ) ) ;
#121 = EDGE_CURVE ( 'NONE', #66, #73, #203, .T. ) ;
#122 = DIRECTION ( 'NONE',  ( -0.0000000000000000000, -0.0000000000000000000, -1.000000000000000000 ) ) ;
#123 = CARTESIAN_POINT ( 'NONE',  ( 4.275390550490749700, -4.299023413930793700, -0.2207015846657413300 ) ) ;
#124 = DATE_AND_TIME ( #150, #3 ) ;
#125 = CARTESIAN_POINT ( 'NONE',  ( -8.485378134434189000, -12.85186820706391100, 0.8761593083740595300 ) ) ;
#126 =( BOUNDED_SURFACE ( )  B_SPLINE_SURFACE ( 3, 3, ( 
 ( #229, #7, #28, #157 ),
 ( #31, #123, #214, #100 ),
 ( #134, #152, #199, #61 ),
 ( #159, #154, #216, #120 ) ),
 .UNSPECIFIED., .F., .F., .T. ) 
 B_SPLINE_SURFACE_WITH_KNOTS ( ( 4, 4 ),
 ( 4, 4 ),
 ( 0.0000000000000000000, 1.000000000000000000 ),
 ( 0.0000000000000000000, 1.000000000000000000 ),
 .UNSPECIFIED. ) 
 GEOMETRIC_REPRESENTATION_ITEM ( )  RATIONAL_B_SPLINE_SURFACE ( (
 ( 1.000000000000000000, 0.9991335795963500700, 0.9991335795963500700, 1.000000000000000000),
 ( 0.9964951703075911600, 0.9956317865598980400, 0.9956317865598980400, 0.9964951703075911600),
 ( 0.9964951703075911600, 0.9956317865598980400, 0.9956317865598980400, 0.9964951703075911600),
 ( 1.000000000000000000, 0.9991335795963500700, 0.9991335795963500700, 1.000000000000000000) ) ) 
 REPRESENTATION_ITEM ( '' )  SURFACE ( )  );
#127 = PERSON ( 'UNSPECIFIED', 'UNSPECIFIED', 'UNSPECIFIED', ('UNSPECIFIED'), ('UNSPECIFIED'), ('UNSPECIFIED') ) ;
#128 = CARTESIAN_POINT ( 'NONE',  ( -12.79840395203225600, 4.299023413930830100, 0.4324356069041339600 ) ) ;
#129 = PERSON_AND_ORGANIZATION_ROLE ( 'creator' ) ;
#130 = EDGE_LOOP ( 'NONE', ( #70, #131, #161 ) ) ;
#131 = ORIENTED_EDGE ( 'NONE', *, *, #86, .T. ) ;
#132 = PERSON_AND_ORGANIZATION ( #127, #25 ) ;
#133 = CARTESIAN_POINT ( 'NONE',  ( -12.69999999999999900, 3.997792089092478900E-015, 0.6442432244311779900 ) ) ;
#134 = CARTESIAN_POINT ( 'NONE',  ( -1.946982927510379600E-014, 4.299023413930833600, -0.2207015846657400500 ) ) ;
#135 = COORDINATED_UNIVERSAL_TIME_OFFSET ( 2, 0, .AHEAD. ) ;
#136 = EDGE_CURVE ( 'NONE', #66, #180, #179, .T. ) ;
#137 = APPROVAL_ROLE ( '' ) ;
#138 = SHAPE_DEFINITION_REPRESENTATION ( #9, #177 ) ;
#139 = FACE_OUTER_BOUND ( 'NONE', #170, .T. ) ;
#140 = CARTESIAN_POINT ( 'NONE',  ( -12.70877024436931900, -12.85186820706391400, 1.308347130477033300 ) ) ;
#141 = CC_DESIGN_SECURITY_CLASSIFICATION ( #200, ( #24 ) ) ;
#142 = CARTESIAN_POINT ( 'NONE',  ( -4.275390550490795900, -4.299023413930796300, -0.2207015846657408600 ) ) ;
#143 = CARTESIAN_POINT ( 'NONE',  ( -4.510281037539699100E-014, -4.299023413930796300, -0.2207015846657418800 ) ) ;
#144 = FACE_OUTER_BOUND ( 'NONE', #225, .T. ) ;
#145 = ADVANCED_FACE ( 'NONE', ( #144 ), #209, .T. ) ;
#146 = ORIENTED_EDGE ( 'NONE', *, *, #155, .F. ) ;
#147 = LOCAL_TIME ( 10, 41, 44.00000000000000000, #37 ) ;
#148 = AXIS2_PLACEMENT_3D ( 'NONE', #29, #44, #231 ) ;
#149 = DIRECTION ( 'NONE',  ( 1.000000000000000000, 0.0000000000000000000, 0.0000000000000000000 ) ) ;
#150 = CALENDAR_DATE ( 2019, 3, 1 ) ;
#151 = ORIENTED_EDGE ( 'NONE', *, *, #121, .F. ) ;
#152 = CARTESIAN_POINT ( 'NONE',  ( 4.275390550490747900, 4.299023413930836300, -0.2207015846657402500 ) ) ;
#153 = CALENDAR_DATE ( 2019, 3, 1 ) ;
#154 = CARTESIAN_POINT ( 'NONE',  ( 4.245447824180194700, 12.85186820706395000, 0.6597841895959465400 ) ) ;
#155 = EDGE_CURVE ( 'NONE', #180, #112, #94, .T. ) ;
#156 = DIRECTION ( 'NONE',  ( 0.0000000000000000000, 0.0000000000000000000, 1.000000000000000000 ) ) ;
#157 = CARTESIAN_POINT ( 'NONE',  ( 12.70877024436931000, -12.85186820706390700, 1.308347130477034000 ) ) ;
#158 = CC_DESIGN_APPROVAL ( #51, ( #79 ) ) ;
#159 = CARTESIAN_POINT ( 'NONE',  ( -2.142031588324620800E-014, 12.85186820706395000, 0.6597841895959466500 ) ) ;
#160 = CIRCLE ( 'NONE', #223, 12.69999999999999900 ) ;
#161 = ORIENTED_EDGE ( 'NONE', *, *, #136, .T. ) ;
#162 = SECURITY_CLASSIFICATION_LEVEL ( 'unclassified' ) ;
#163 = EDGE_CURVE ( 'NONE', #73, #184, #160, .T. ) ;
#164 = PLANE ( 'NONE',  #166 ) ;
#165 = ORIENTED_EDGE ( 'NONE', *, *, #136, .F. ) ;
#166 = AXIS2_PLACEMENT_3D ( 'NONE', #2, #33, #204 ) ;
#167 = PERSON_AND_ORGANIZATION ( #127, #25 ) ;
#168 = ORIENTED_EDGE ( 'NONE', *, *, #40, .F. ) ;
#169 = MANIFOLD_SOLID_BREP ( 'Imported1', #188 ) ;
#170 = EDGE_LOOP ( 'NONE', ( #165, #88, #58, #168, #146 ) ) ;
#171 = FACE_OUTER_BOUND ( 'NONE', #130, .T. ) ;
#172 = ORIENTED_EDGE ( 'NONE', *, *, #38, .T. ) ;
#173 = CC_DESIGN_PERSON_AND_ORGANIZATION_ASSIGNMENT ( #167, #129, ( #24 ) ) ;
#174 = AXIS2_PLACEMENT_3D ( 'NONE', #103, #122, #198 ) ;
#175 = CARTESIAN_POINT ( 'NONE',  ( -1.550450106029800700E-014, -12.70000000000001400, 0.6442432244311883100 ) ) ;
#176 = DIRECTION ( 'NONE',  ( 1.000000000000000000, 0.0000000000000000000, 0.0000000000000000000 ) ) ;
#177 = ADVANCED_BREP_SHAPE_REPRESENTATION ( '110-5222E CaF2 pl-cx 25.4 F300', ( #169, #55 ), #235 ) ;
#178 = CC_DESIGN_PERSON_AND_ORGANIZATION_ASSIGNMENT ( #132, #65, ( #79 ) ) ;
#179 = CIRCLE ( 'NONE', #22, 12.69999999999999900 ) ;
#180 = VERTEX_POINT ( 'NONE', #64 ) ;
#181 = AXIS2_PLACEMENT_3D ( 'NONE', #56, #195, #12 ) ;
#182 = PERSON_AND_ORGANIZATION_ROLE ( 'design_owner' ) ;
#183 = APPLICATION_PROTOCOL_DEFINITION ( 'international standard', 'config_control_design', 1994, #109 ) ;
#184 = VERTEX_POINT ( 'NONE', #99 ) ;
#185 = MECHANICAL_CONTEXT ( 'NONE', #71, 'mechanical' ) ;
#186 = CARTESIAN_POINT ( 'NONE',  ( -4.275390550490799400, 4.299023413930833600, -0.2207015846657401600 ) ) ;
#187 = ADVANCED_FACE ( 'NONE', ( #171 ), #78, .T. ) ;
#188 = CLOSED_SHELL ( 'NONE', ( #53, #36, #187, #145, #208 ) ) ;
#189 = DATE_AND_TIME ( #234, #30 ) ;
#190 = ORIENTED_EDGE ( 'NONE', *, *, #155, .T. ) ;
#191 = APPROVAL_PERSON_ORGANIZATION ( #98, #4, #32 ) ;
#192 = AXIS2_PLACEMENT_3D ( 'NONE', #193, #27, #149 ) ;
#193 = CARTESIAN_POINT ( 'NONE',  ( 4.996003610813200500E-016, 2.442490654175340100E-015, 0.6442432244311779900 ) ) ;
#194 = ORIENTED_EDGE ( 'NONE', *, *, #86, .F. ) ;
#195 = DIRECTION ( 'NONE',  ( -0.0000000000000000000, -0.0000000000000000000, -1.000000000000000000 ) ) ;
#196 = CARTESIAN_POINT ( 'NONE',  ( 4.996003610813200500E-016, 2.442490654175340100E-015, 0.6442432244311779900 ) ) ;
#197 = COORDINATED_UNIVERSAL_TIME_OFFSET ( 2, 0, .AHEAD. ) ;
#198 = DIRECTION ( 'NONE',  ( 1.000000000000000000, 0.0000000000000000000, 0.0000000000000000000 ) ) ;
#199 = CARTESIAN_POINT ( 'NONE',  ( 8.545224672571738000, 4.299023413930837200, -0.002800393437724904500 ) ) ;
#200 = SECURITY_CLASSIFICATION ( '', '', #162 ) ;
#201 = APPROVAL_ROLE ( '' ) ;
#202 = CALENDAR_DATE ( 2019, 3, 1 ) ;
#203 = LINE ( 'NONE', #101, #75 ) ;
#204 = DIRECTION ( 'NONE',  ( 1.000000000000000000, 0.0000000000000000000, -0.0000000000000000000 ) ) ;
#205 = CARTESIAN_POINT ( 'NONE',  ( -4.336808689942017700E-014, -12.85186820706391100, 0.6597841895959458700 ) ) ;
#206 = APPLICATION_PROTOCOL_DEFINITION ( 'international standard', 'config_control_design', 1994, #71 ) ;
#207 = APPROVAL ( #48, 'UNSPECIFIED' ) ;
#208 = ADVANCED_FACE ( 'NONE', ( #91 ), #164, .T. ) ;
#209 = CYLINDRICAL_SURFACE ( 'NONE', #14, 12.69999999999999900 ) ;
#210 = APPROVAL_DATE_TIME ( #83, #4 ) ;
#211 = FACE_OUTER_BOUND ( 'NONE', #228, .T. ) ;
#212 = DIRECTION ( 'NONE',  ( 1.000000000000000000, 0.0000000000000000000, 0.0000000000000000000 ) ) ;
#213 = ORIENTED_EDGE ( 'NONE', *, *, #40, .T. ) ;
#214 = CARTESIAN_POINT ( 'NONE',  ( 8.545224672571741600, -4.299023413930792800, -0.002800393437726042900 ) ) ;
#215 = CARTESIAN_POINT ( 'NONE',  ( 12.69999999999999900, 2.442490654175340100E-015, 0.6442432244311779900 ) ) ;
#216 = CARTESIAN_POINT ( 'NONE',  ( 8.485378134434157000, 12.85186820706395000, 0.8761593083740579800 ) ) ;
#217 = APPROVAL_PERSON_ORGANIZATION ( #15, #51, #137 ) ;
#218 = LINE ( 'NONE', #42, #116 ) ;
#219 = APPROVAL_STATUS ( 'not_yet_approved' ) ;
#220 = CARTESIAN_POINT ( 'NONE',  ( -8.485378134434196100, 12.85186820706394600, 0.8761593083740595300 ) ) ;
#221 = ORIENTED_EDGE ( 'NONE', *, *, #163, .F. ) ;
#222 = DIRECTION ( 'NONE',  ( 0.0000000000000000000, 0.0000000000000000000, 1.000000000000000000 ) ) ;
#223 = AXIS2_PLACEMENT_3D ( 'NONE', #118, #18, #67 ) ;
#224 = APPROVAL_DATE_TIME ( #189, #207 ) ;
#225 = EDGE_LOOP ( 'NONE', ( #151, #194, #106, #213, #111 ) ) ;
#226 = CC_DESIGN_DATE_AND_TIME_ASSIGNMENT ( #57, #104, ( #200 ) ) ;
#227 = LOCAL_TIME ( 10, 41, 44.00000000000000000, #197 ) ;
#228 = EDGE_LOOP ( 'NONE', ( #172, #119, #190 ) ) ;
#229 = CARTESIAN_POINT ( 'NONE',  ( -1.546881008435264000E-014, -12.85186820706391100, 0.6597841895959466500 ) ) ;
#230 = DIRECTION ( 'NONE',  ( -0.0000000000000000000, -0.0000000000000000000, -1.000000000000000000 ) ) ;
#231 = DIRECTION ( 'NONE',  ( 1.000000000000000000, 0.0000000000000000000, 0.0000000000000000000 ) ) ;
#232 = CARTESIAN_POINT ( 'NONE',  ( -12.79840395203225300, -4.299023413930799000, 0.4324356069041328500 ) ) ;
#233 = CARTESIAN_POINT ( 'NONE',  ( 0.0000000000000000000, 0.0000000000000000000, 0.0000000000000000000 ) ) ;
#234 = CALENDAR_DATE ( 2019, 3, 1 ) ;
#235 =( GEOMETRIC_REPRESENTATION_CONTEXT ( 3 ) GLOBAL_UNCERTAINTY_ASSIGNED_CONTEXT ( ( #96 ) ) GLOBAL_UNIT_ASSIGNED_CONTEXT ( ( #69, #49, #17 ) ) REPRESENTATION_CONTEXT ( 'NONE', 'WORKASPACE' ) );
ENDSEC;
END-ISO-10303-21;
