ISO-10303-21;
HEADER;
FILE_DESCRIPTION (( 'STEP AP203' ),
    '1' );
FILE_NAME ('110-5219E CaF2 pl-cx 25.4 F200.STEP',
    '2019-01-03T08:09:31',
    ( '' ),
    ( '' ),
    'SwSTEP 2.0',
    'SolidWorks 2017',
    '' );
FILE_SCHEMA (( 'CONFIG_CONTROL_DESIGN' ));
ENDSEC;

DATA;
#1 = EDGE_LOOP ( 'NONE', ( #110, #55, #174 ) ) ;
#2 =( BOUNDED_SURFACE ( )  B_SPLINE_SURFACE ( 3, 3, ( 
 ( #205, #167, #164, #185 ),
 ( #85, #31, #206, #137 ),
 ( #103, #122, #68, #32 ),
 ( #186, #207, #58, #16 ) ),
 .UNSPECIFIED., .F., .F., .F. ) 
 B_SPLINE_SURFACE_WITH_KNOTS ( ( 4, 4 ),
 ( 4, 4 ),
 ( 0.0000000000000000000, 1.000000000000000000 ),
 ( 0.0000000000000000000, 1.000000000000000000 ),
 .UNSPECIFIED. ) 
 GEOMETRIC_REPRESENTATION_ITEM ( )  RATIONAL_B_SPLINE_SURFACE ( (
 ( 1.000000000000000000, 0.9980418634174327300, 0.9980418634174327300, 1.000000000000000000),
 ( 0.9920855711713756400, 0.9901429321214277900, 0.9901429321214277900, 0.9920855711713756400),
 ( 0.9920855711713756400, 0.9901429321214277900, 0.9901429321214277900, 0.9920855711713756400),
 ( 1.000000000000000000, 0.9980418634174327300, 0.9980418634174327300, 1.000000000000000000) ) ) 
 REPRESENTATION_ITEM ( '' )  SURFACE ( )  );
#3 = CARTESIAN_POINT ( 'NONE',  ( 2.927868213549392900E-014, -12.85119678140683800, 0.9930629572716537200 ) ) ;
#4 = CARTESIAN_POINT ( 'NONE',  ( 4.228655164328007900, -12.85119678140683800, 0.9930629572716549400 ) ) ;
#5 = EDGE_CURVE ( 'NONE', #80, #99, #105, .T. ) ;
#6 = APPROVAL_PERSON_ORGANIZATION ( #129, #48, #57 ) ;
#7 = CC_DESIGN_APPROVAL ( #37, ( #134 ) ) ;
#8 = CARTESIAN_POINT ( 'NONE',  ( 4.228655164327999000, 12.85119678140683200, 0.9930629572716410700 ) ) ;
#9 = LOCAL_TIME ( 10, 9, 31.00000000000000000, #20 ) ;
#10 = CALENDAR_DATE ( 2019, 3, 1 ) ;
#11 = VERTEX_POINT ( 'NONE', #179 ) ;
#12 = AXIS2_PLACEMENT_3D ( 'NONE', #157, #108, #75 ) ;
#13 = CARTESIAN_POINT ( 'NONE',  ( 0.0000000000000000000, 0.0000000000000000000, 0.0000000000000000000 ) ) ;
#14 = PERSON_AND_ORGANIZATION ( #95, #42 ) ;
#15 =( NAMED_UNIT ( * ) PLANE_ANGLE_UNIT ( ) SI_UNIT ( $, .RADIAN. ) );
#16 = CARTESIAN_POINT ( 'NONE',  ( -1.734723475976807100E-015, 12.85119678140682900, 0.9930629572716394000 ) ) ;
#17 = DIRECTION ( 'NONE',  ( -0.0000000000000000000, -0.0000000000000000000, -1.000000000000000000 ) ) ;
#18 = LINE ( 'NONE', #98, #72 ) ;
#19 = COORDINATED_UNIVERSAL_TIME_OFFSET ( 2, 0, .AHEAD. ) ;
#20 = COORDINATED_UNIVERSAL_TIME_OFFSET ( 2, 0, .AHEAD. ) ;
#21 = AXIS2_PLACEMENT_3D ( 'NONE', #183, #101, #114 ) ;
#22 = CARTESIAN_POINT ( 'NONE',  ( 12.69999999999999900, 2.442490654175340100E-015, 0.9696970252285550500 ) ) ;
#23 = CC_DESIGN_PERSON_AND_ORGANIZATION_ASSIGNMENT ( #231, #71, ( #134 ) ) ;
#24 = DIRECTION ( 'NONE',  ( 1.000000000000000000, 0.0000000000000000000, 0.0000000000000000000 ) ) ;
#25 = CALENDAR_DATE ( 2019, 3, 1 ) ;
#26 = CARTESIAN_POINT ( 'NONE',  ( 2.671265854865550000E-014, -4.317906020355744400, -0.3336617277543564300 ) ) ;
#27 = CC_DESIGN_PERSON_AND_ORGANIZATION_ASSIGNMENT ( #14, #93, ( #126 ) ) ;
#28 = CALENDAR_DATE ( 2019, 3, 1 ) ;
#29 = CARTESIAN_POINT ( 'NONE',  ( 12.69999999999999900, 2.442490654175340100E-015, 4.000000000000000000 ) ) ;
#30 = CARTESIAN_POINT ( 'NONE',  ( 12.62393632286630500, 12.85119678140683400, 1.962758199326031700 ) ) ;
#31 = CARTESIAN_POINT ( 'NONE',  ( -8.580438644844246500, -4.317906020355748000, -0.004597441893694336300 ) ) ;
#32 = CARTESIAN_POINT ( 'NONE',  ( 1.734723475976806900E-015, 4.317906020355732900, -0.3336617277543694200 ) ) ;
#33 = AXIS2_PLACEMENT_3D ( 'NONE', #107, #230, #211 ) ;
#34 = PERSON_AND_ORGANIZATION ( #95, #42 ) ;
#35 = APPROVAL_STATUS ( 'not_yet_approved' ) ;
#36 =( NAMED_UNIT ( * ) SI_UNIT ( $, .STERADIAN. ) SOLID_ANGLE_UNIT ( ) );
#37 = APPROVAL ( #35, 'UNSPECIFIED' ) ;
#38 = CARTESIAN_POINT ( 'NONE',  ( -12.69999999999999900, 3.997792089092478900E-015, 0.9696970252285550500 ) ) ;
#39 = CIRCLE ( 'NONE', #21, 12.69999999999999900 ) ;
#40 = CC_DESIGN_SECURITY_CLASSIFICATION ( #134, ( #126 ) ) ;
#41 = VERTEX_POINT ( 'NONE', #22 ) ;
#42 = ORGANIZATION ( 'UNSPECIFIED', 'UNSPECIFIED', '' ) ;
#43 = EDGE_CURVE ( 'NONE', #99, #80, #39, .T. ) ;
#44 = UNCERTAINTY_MEASURE_WITH_UNIT (LENGTH_MEASURE( 1.000000000000000100E-005 ), #56, 'distance_accuracy_value', 'NONE');
#45 = CC_DESIGN_DATE_AND_TIME_ASSIGNMENT ( #168, #209, ( #134 ) ) ;
#46 = VERTEX_POINT ( 'NONE', #199 ) ;
#47 = CYLINDRICAL_SURFACE ( 'NONE', #111, 12.69999999999999900 ) ;
#48 = APPROVAL ( #212, 'UNSPECIFIED' ) ;
#49 = MANIFOLD_SOLID_BREP ( 'Imported1', #192 ) ;
#50 = ORIENTED_EDGE ( 'NONE', *, *, #67, .F. ) ;
#51 = CARTESIAN_POINT ( 'NONE',  ( 0.0000000000000000000, 26.11199999999999800, 4.000000000000000000 ) ) ;
#52 = CARTESIAN_POINT ( 'NONE',  ( 4.996003610813200500E-016, 2.442490654175340100E-015, 0.9696970252285550500 ) ) ;
#53 = APPLICATION_CONTEXT ( 'configuration controlled 3d designs of mechanical parts and assemblies' ) ;
#54 = APPROVAL_DATE_TIME ( #119, #48 ) ;
#55 = ORIENTED_EDGE ( 'NONE', *, *, #215, .T. ) ;
#56 =( LENGTH_UNIT ( ) NAMED_UNIT ( * ) SI_UNIT ( .MILLI., .METRE. ) );
#57 = APPROVAL_ROLE ( '' ) ;
#58 = CARTESIAN_POINT ( 'NONE',  ( -4.228655164327999900, 12.85119678140682900, 0.9930629572716391800 ) ) ;
#59 = EDGE_CURVE ( 'NONE', #11, #217, #162, .T. ) ;
#60 = FACE_OUTER_BOUND ( 'NONE', #1, .T. ) ;
#61 = PERSON_AND_ORGANIZATION ( #95, #42 ) ;
#62 = ORIENTED_EDGE ( 'NONE', *, *, #202, .F. ) ;
#63 = LOCAL_TIME ( 10, 9, 31.00000000000000000, #19 ) ;
#64 = CARTESIAN_POINT ( 'NONE',  ( 8.580438644844237600, -4.317906020355741800, -0.004597441893695636400 ) ) ;
#65 = DIRECTION ( 'NONE',  ( -0.0000000000000000000, -0.0000000000000000000, -1.000000000000000000 ) ) ;
#66 = ORIENTED_EDGE ( 'NONE', *, *, #213, .T. ) ;
#67 = EDGE_CURVE ( 'NONE', #41, #99, #18, .T. ) ;
#68 = CARTESIAN_POINT ( 'NONE',  ( -4.296529215698621200, 4.317906020355731100, -0.3336617277543695900 ) ) ;
#69 = ADVANCED_FACE ( 'NONE', ( #91 ), #115, .T. ) ;
#70 = ORIENTED_EDGE ( 'NONE', *, *, #202, .T. ) ;
#71 = PERSON_AND_ORGANIZATION_ROLE ( 'classification_officer' ) ;
#72 = VECTOR ( 'NONE', #117, 1000.000000000000000 ) ;
#73 = PERSON_AND_ORGANIZATION_ROLE ( 'design_owner' ) ;
#74 = DIRECTION ( 'NONE',  ( 1.000000000000000000, 0.0000000000000000000, -0.0000000000000000000 ) ) ;
#75 = DIRECTION ( 'NONE',  ( 1.000000000000000000, 0.0000000000000000000, 0.0000000000000000000 ) ) ;
#76 = CC_DESIGN_PERSON_AND_ORGANIZATION_ASSIGNMENT ( #61, #90, ( #156 ) ) ;
#77 = AXIS2_PLACEMENT_3D ( 'NONE', #88, #17, #226 ) ;
#78 = APPROVAL_PERSON_ORGANIZATION ( #127, #37, #154 ) ;
#79 = PERSON_AND_ORGANIZATION ( #95, #42 ) ;
#80 = VERTEX_POINT ( 'NONE', #161 ) ;
#81 = EDGE_LOOP ( 'NONE', ( #62, #233, #229, #170, #128 ) ) ;
#82 = CC_DESIGN_DATE_AND_TIME_ASSIGNMENT ( #196, #89, ( #156 ) ) ;
#83 = DIRECTION ( 'NONE',  ( 1.000000000000000000, 3.473828569973949900E-016, 3.002094871832189900E-016 ) ) ;
#84 = CARTESIAN_POINT ( 'NONE',  ( 12.82656284812801000, -4.317906020355740000, 0.6515980713791435000 ) ) ;
#85 = CARTESIAN_POINT ( 'NONE',  ( -12.82656284812803600, -4.317906020355749800, 0.6515980713791493800 ) ) ;
#86 = FACE_OUTER_BOUND ( 'NONE', #223, .T. ) ;
#87 = AXIS2_PLACEMENT_3D ( 'NONE', #159, #182, #148 ) ;
#88 = CARTESIAN_POINT ( 'NONE',  ( 4.996003610813200500E-016, 2.442490654175340100E-015, 0.9696970252285550500 ) ) ;
#89 = DATE_TIME_ROLE ( 'creation_date' ) ;
#90 = PERSON_AND_ORGANIZATION_ROLE ( 'creator' ) ;
#91 = FACE_OUTER_BOUND ( 'NONE', #188, .T. ) ;
#92 = AXIS2_PLACEMENT_3D ( 'NONE', #131, #96, #24 ) ;
#93 = PERSON_AND_ORGANIZATION_ROLE ( 'design_supplier' ) ;
#94 = ORIENTED_EDGE ( 'NONE', *, *, #225, .F. ) ;
#95 = PERSON ( 'UNSPECIFIED', 'UNSPECIFIED', 'UNSPECIFIED', ('UNSPECIFIED'), ('UNSPECIFIED'), ('UNSPECIFIED') ) ;
#96 = DIRECTION ( 'NONE',  ( -0.0000000000000000000, -0.0000000000000000000, -1.000000000000000000 ) ) ;
#97 = CIRCLE ( 'NONE', #77, 12.69999999999999900 ) ;
#98 = CARTESIAN_POINT ( 'NONE',  ( 12.69999999999999900, 2.442490654175340100E-015, 0.9696970252285550500 ) ) ;
#99 = VERTEX_POINT ( 'NONE', #29 ) ;
#100 = DATE_AND_TIME ( #147, #178 ) ;
#101 = DIRECTION ( 'NONE',  ( -0.0000000000000000000, -0.0000000000000000000, -1.000000000000000000 ) ) ;
#102 = CARTESIAN_POINT ( 'NONE',  ( 12.82656284812801000, 4.317906020355739100, 0.6515980713791309500 ) ) ;
#103 = CARTESIAN_POINT ( 'NONE',  ( -12.82656284812804200, 4.317906020355728500, 0.6515980713791361700 ) ) ;
#104 = EDGE_CURVE ( 'NONE', #41, #11, #235, .T. ) ;
#105 = CIRCLE ( 'NONE', #92, 12.69999999999999900 ) ;
#106 = PERSON_AND_ORGANIZATION ( #95, #42 ) ;
#107 = CARTESIAN_POINT ( 'NONE',  ( 4.996003610813200500E-016, 2.442490654175340100E-015, 0.9696970252285550500 ) ) ;
#108 = DIRECTION ( 'NONE',  ( -0.0000000000000000000, -0.0000000000000000000, -1.000000000000000000 ) ) ;
#109 = CALENDAR_DATE ( 2019, 3, 1 ) ;
#110 = ORIENTED_EDGE ( 'NONE', *, *, #59, .F. ) ;
#111 = AXIS2_PLACEMENT_3D ( 'NONE', #52, #142, #224 ) ;
#112 = COORDINATED_UNIVERSAL_TIME_OFFSET ( 2, 0, .AHEAD. ) ;
#113 = ORIENTED_EDGE ( 'NONE', *, *, #5, .T. ) ;
#114 = DIRECTION ( 'NONE',  ( 1.000000000000000000, 0.0000000000000000000, 0.0000000000000000000 ) ) ;
#115 = CYLINDRICAL_SURFACE ( 'NONE', #87, 12.69999999999999900 ) ;
#116 = PRODUCT_RELATED_PRODUCT_CATEGORY ( 'detail', '', ( #180 ) ) ;
#117 = DIRECTION ( 'NONE',  ( 0.0000000000000000000, 0.0000000000000000000, 1.000000000000000000 ) ) ;
#118 = CARTESIAN_POINT ( 'NONE',  ( 0.0000000000000000000, 0.0000000000000000000, 83.65000000000000600 ) ) ;
#119 = DATE_AND_TIME ( #28, #158 ) ;
#120 = CARTESIAN_POINT ( 'NONE',  ( 8.580438644844235800, 4.317906020355736500, -0.004597441893708537600 ) ) ;
#121 = AXIS2_PLACEMENT_3D ( 'NONE', #118, #83, #181 ) ;
#122 = CARTESIAN_POINT ( 'NONE',  ( -8.580438644844250000, 4.317906020355730200, -0.004597441893707454200 ) ) ;
#123 =( GEOMETRIC_REPRESENTATION_CONTEXT ( 3 ) GLOBAL_UNCERTAINTY_ASSIGNED_CONTEXT ( ( #44 ) ) GLOBAL_UNIT_ASSIGNED_CONTEXT ( ( #56, #15, #36 ) ) REPRESENTATION_CONTEXT ( 'NONE', 'WORKASPACE' ) );
#124 = APPLICATION_CONTEXT ( 'configuration controlled 3d designs of mechanical parts and assemblies' ) ;
#125 = MECHANICAL_CONTEXT ( 'NONE', #124, 'mechanical' ) ;
#126 = PRODUCT_DEFINITION_FORMATION_WITH_SPECIFIED_SOURCE ( 'ANY', '', #180, .NOT_KNOWN. ) ;
#127 = PERSON_AND_ORGANIZATION ( #95, #42 ) ;
#128 = ORIENTED_EDGE ( 'NONE', *, *, #43, .T. ) ;
#129 = PERSON_AND_ORGANIZATION ( #95, #42 ) ;
#130 = LOCAL_TIME ( 10, 9, 31.00000000000000000, #112 ) ;
#131 = CARTESIAN_POINT ( 'NONE',  ( 4.996003610813200500E-016, 2.442490654175340100E-015, 4.000000000000000000 ) ) ;
#132 = CARTESIAN_POINT ( 'NONE',  ( 4.996003610813200500E-016, 2.442490654175340100E-015, 0.9696970252285550500 ) ) ;
#133 = ORIENTED_EDGE ( 'NONE', *, *, #5, .F. ) ;
#134 = SECURITY_CLASSIFICATION ( '', '', #153 ) ;
#135 = CC_DESIGN_PERSON_AND_ORGANIZATION_ASSIGNMENT ( #34, #173, ( #126 ) ) ;
#136 = CARTESIAN_POINT ( 'NONE',  ( 8.444889902097477500, 12.85119678140683400, 1.316928878330977800 ) ) ;
#137 = CARTESIAN_POINT ( 'NONE',  ( 5.204170427930421300E-015, -4.317906020355745300, -0.3336617277543571000 ) ) ;
#138 = ADVANCED_FACE ( 'NONE', ( #86 ), #145, .T. ) ;
#139 = PLANE ( 'NONE',  #144 ) ;
#140 = DIRECTION ( 'NONE',  ( 0.0000000000000000000, 0.0000000000000000000, 1.000000000000000000 ) ) ;
#141 = LINE ( 'NONE', #38, #177 ) ;
#142 = DIRECTION ( 'NONE',  ( 0.0000000000000000000, 0.0000000000000000000, 1.000000000000000000 ) ) ;
#143 = APPLICATION_PROTOCOL_DEFINITION ( 'international standard', 'config_control_design', 1994, #124 ) ;
#144 = AXIS2_PLACEMENT_3D ( 'NONE', #51, #210, #74 ) ;
#145 =( BOUNDED_SURFACE ( )  B_SPLINE_SURFACE ( 3, 3, ( 
 ( #3, #4, #200, #165 ),
 ( #26, #203, #64, #84 ),
 ( #160, #219, #120, #102 ),
 ( #184, #8, #136, #30 ) ),
 .UNSPECIFIED., .F., .F., .F. ) 
 B_SPLINE_SURFACE_WITH_KNOTS ( ( 4, 4 ),
 ( 4, 4 ),
 ( 0.0000000000000000000, 1.000000000000000000 ),
 ( 0.0000000000000000000, 1.000000000000000000 ),
 .UNSPECIFIED. ) 
 GEOMETRIC_REPRESENTATION_ITEM ( )  RATIONAL_B_SPLINE_SURFACE ( (
 ( 1.000000000000000000, 0.9980418634174327300, 0.9980418634174327300, 1.000000000000000000),
 ( 0.9920855711713756400, 0.9901429321214277900, 0.9901429321214277900, 0.9920855711713756400),
 ( 0.9920855711713756400, 0.9901429321214277900, 0.9901429321214277900, 0.9920855711713756400),
 ( 1.000000000000000000, 0.9980418634174327300, 0.9980418634174327300, 1.000000000000000000) ) ) 
 REPRESENTATION_ITEM ( '' )  SURFACE ( )  );
#146 = ORIENTED_EDGE ( 'NONE', *, *, #213, .F. ) ;
#147 = CALENDAR_DATE ( 2019, 3, 1 ) ;
#148 = DIRECTION ( 'NONE',  ( 1.000000000000000000, 0.0000000000000000000, 0.0000000000000000000 ) ) ;
#149 = DIRECTION ( 'NONE',  ( 1.000000000000000000, 0.0000000000000000000, 0.0000000000000000000 ) ) ;
#150 = APPROVAL_DATE_TIME ( #100, #216 ) ;
#151 = AXIS2_PLACEMENT_3D ( 'NONE', #132, #65, #149 ) ;
#152 = ORIENTED_EDGE ( 'NONE', *, *, #104, .T. ) ;
#153 = SECURITY_CLASSIFICATION_LEVEL ( 'unclassified' ) ;
#154 = APPROVAL_ROLE ( '' ) ;
#155 = DIRECTION ( 'NONE',  ( 0.0000000000000000000, 0.0000000000000000000, 1.000000000000000000 ) ) ;
#156 = PRODUCT_DEFINITION ( 'UNKNOWN', '', #126, #204 ) ;
#157 = CARTESIAN_POINT ( 'NONE',  ( 4.996003610813200500E-016, 2.442490654175340100E-015, 0.9696970252285550500 ) ) ;
#158 = LOCAL_TIME ( 10, 9, 31.00000000000000000, #191 ) ;
#159 = CARTESIAN_POINT ( 'NONE',  ( 4.996003610813200500E-016, 2.442490654175340100E-015, 0.9696970252285550500 ) ) ;
#160 = CARTESIAN_POINT ( 'NONE',  ( 2.371272548946064700E-014, 4.317906020355733800, -0.3336617277543692000 ) ) ;
#161 = CARTESIAN_POINT ( 'NONE',  ( -12.69999999999999900, 3.997792089092478900E-015, 4.000000000000000000 ) ) ;
#162 = CIRCLE ( 'NONE', #121, 83.65000000000000600 ) ;
#163 = CC_DESIGN_APPROVAL ( #48, ( #126 ) ) ;
#164 = CARTESIAN_POINT ( 'NONE',  ( -4.228655164327988400, -12.85119678140684100, 0.9930629572716533900 ) ) ;
#165 = CARTESIAN_POINT ( 'NONE',  ( 12.62393632286631200, -12.85119678140683200, 1.962758199326045000 ) ) ;
#166 = CC_DESIGN_APPROVAL ( #216, ( #156 ) ) ;
#167 = CARTESIAN_POINT ( 'NONE',  ( -8.444889902097486400, -12.85119678140684300, 1.316928878330992300 ) ) ;
#168 = DATE_AND_TIME ( #109, #9 ) ;
#169 = ADVANCED_FACE ( 'NONE', ( #60 ), #2, .T. ) ;
#170 = ORIENTED_EDGE ( 'NONE', *, *, #67, .T. ) ;
#171 = APPROVAL_ROLE ( '' ) ;
#172 = APPLICATION_PROTOCOL_DEFINITION ( 'international standard', 'config_control_design', 1994, #53 ) ;
#173 = PERSON_AND_ORGANIZATION_ROLE ( 'creator' ) ;
#174 = ORIENTED_EDGE ( 'NONE', *, *, #225, .T. ) ;
#175 = ADVANCED_BREP_SHAPE_REPRESENTATION ( '110-5219E CaF2 pl-cx 25.4 F200', ( #49, #197 ), #123 ) ;
#176 = SHAPE_DEFINITION_REPRESENTATION ( #222, #175 ) ;
#177 = VECTOR ( 'NONE', #140, 1000.000000000000000 ) ;
#178 = LOCAL_TIME ( 10, 9, 31.00000000000000000, #228 ) ;
#179 = CARTESIAN_POINT ( 'NONE',  ( 2.923317364007623100E-014, -12.70000000000001000, 0.9696970252285580500 ) ) ;
#180 = PRODUCT ( '110-5219E CaF2 pl-cx 25.4 F200', '110-5219E CaF2 pl-cx 25.4 F200', '', ( #125 ) ) ;
#181 = DIRECTION ( 'NONE',  ( 3.473828569973949900E-016, -1.000000000000000000, 0.0000000000000000000 ) ) ;
#182 = DIRECTION ( 'NONE',  ( 0.0000000000000000000, 0.0000000000000000000, 1.000000000000000000 ) ) ;
#183 = CARTESIAN_POINT ( 'NONE',  ( 4.996003610813200500E-016, 2.442490654175340100E-015, 4.000000000000000000 ) ) ;
#184 = CARTESIAN_POINT ( 'NONE',  ( 2.035011122797226500E-014, 12.85119678140682900, 0.9930629572716398500 ) ) ;
#185 = CARTESIAN_POINT ( 'NONE',  ( 8.673617379884035500E-015, -12.85119678140683800, 0.9930629572716537200 ) ) ;
#186 = CARTESIAN_POINT ( 'NONE',  ( -12.62393632286634400, 12.85119678140682400, 1.962758199326036800 ) ) ;
#187 = CC_DESIGN_PERSON_AND_ORGANIZATION_ASSIGNMENT ( #79, #73, ( #180 ) ) ;
#188 = EDGE_LOOP ( 'NONE', ( #94, #70, #113, #50, #146 ) ) ;
#189 = CARTESIAN_POINT ( 'NONE',  ( 2.040964907234238700E-014, 12.70000000000001000, 0.9696970252285580500 ) ) ;
#190 = CIRCLE ( 'NONE', #12, 12.69999999999999900 ) ;
#191 = COORDINATED_UNIVERSAL_TIME_OFFSET ( 2, 0, .AHEAD. ) ;
#192 = CLOSED_SHELL ( 'NONE', ( #138, #69, #169, #220, #208 ) ) ;
#193 = DIRECTION ( 'NONE',  ( 1.000000000000000000, 0.0000000000000000000, 0.0000000000000000000 ) ) ;
#194 = APPROVAL_STATUS ( 'not_yet_approved' ) ;
#195 = ORIENTED_EDGE ( 'NONE', *, *, #43, .F. ) ;
#196 = DATE_AND_TIME ( #10, #63 ) ;
#197 = AXIS2_PLACEMENT_3D ( 'NONE', #13, #155, #193 ) ;
#198 = FACE_OUTER_BOUND ( 'NONE', #232, .T. ) ;
#199 = CARTESIAN_POINT ( 'NONE',  ( -12.69999999999999900, 3.997792089092478900E-015, 0.9696970252285550500 ) ) ;
#200 = CARTESIAN_POINT ( 'NONE',  ( 8.444889902097484600, -12.85119678140683600, 1.316928878330990900 ) ) ;
#201 = ORIENTED_EDGE ( 'NONE', *, *, #59, .T. ) ;
#202 = EDGE_CURVE ( 'NONE', #46, #80, #141, .T. ) ;
#203 = CARTESIAN_POINT ( 'NONE',  ( 4.296529215698630100, -4.317906020355742700, -0.3336617277543551000 ) ) ;
#204 = DESIGN_CONTEXT ( 'detailed design', #53, 'design' ) ;
#205 = CARTESIAN_POINT ( 'NONE',  ( -12.62393632286633100, -12.85119678140684300, 1.962758199326050800 ) ) ;
#206 = CARTESIAN_POINT ( 'NONE',  ( -4.296529215698618600, -4.317906020355747100, -0.3336617277543572600 ) ) ;
#207 = CARTESIAN_POINT ( 'NONE',  ( -8.444889902097498800, 12.85119678140682700, 1.316928878330978700 ) ) ;
#208 = ADVANCED_FACE ( 'NONE', ( #198 ), #139, .T. ) ;
#209 = DATE_TIME_ROLE ( 'classification_date' ) ;
#210 = DIRECTION ( 'NONE',  ( 0.0000000000000000000, 0.0000000000000000000, 1.000000000000000000 ) ) ;
#211 = DIRECTION ( 'NONE',  ( 1.000000000000000000, 8.881784197001252300E-016, 0.0000000000000000000 ) ) ;
#212 = APPROVAL_STATUS ( 'not_yet_approved' ) ;
#213 = EDGE_CURVE ( 'NONE', #217, #41, #227, .T. ) ;
#214 = DATE_AND_TIME ( #25, #130 ) ;
#215 = EDGE_CURVE ( 'NONE', #11, #46, #97, .T. ) ;
#216 = APPROVAL ( #194, 'UNSPECIFIED' ) ;
#217 = VERTEX_POINT ( 'NONE', #189 ) ;
#218 = APPROVAL_PERSON_ORGANIZATION ( #106, #216, #171 ) ;
#219 = CARTESIAN_POINT ( 'NONE',  ( 4.296529215698626600, 4.317906020355735600, -0.3336617277543679200 ) ) ;
#220 = ADVANCED_FACE ( 'NONE', ( #234 ), #47, .T. ) ;
#221 = APPROVAL_DATE_TIME ( #214, #37 ) ;
#222 = PRODUCT_DEFINITION_SHAPE ( 'NONE', 'NONE',  #156 ) ;
#223 = EDGE_LOOP ( 'NONE', ( #152, #201, #66 ) ) ;
#224 = DIRECTION ( 'NONE',  ( 1.000000000000000000, 0.0000000000000000000, 0.0000000000000000000 ) ) ;
#225 = EDGE_CURVE ( 'NONE', #46, #217, #190, .T. ) ;
#226 = DIRECTION ( 'NONE',  ( 1.000000000000000000, 0.0000000000000000000, 0.0000000000000000000 ) ) ;
#227 = CIRCLE ( 'NONE', #33, 12.69999999999999900 ) ;
#228 = COORDINATED_UNIVERSAL_TIME_OFFSET ( 2, 0, .AHEAD. ) ;
#229 = ORIENTED_EDGE ( 'NONE', *, *, #104, .F. ) ;
#230 = DIRECTION ( 'NONE',  ( -0.0000000000000000000, -0.0000000000000000000, -1.000000000000000000 ) ) ;
#231 = PERSON_AND_ORGANIZATION ( #95, #42 ) ;
#232 = EDGE_LOOP ( 'NONE', ( #195, #133 ) ) ;
#233 = ORIENTED_EDGE ( 'NONE', *, *, #215, .F. ) ;
#234 = FACE_OUTER_BOUND ( 'NONE', #81, .T. ) ;
#235 = CIRCLE ( 'NONE', #151, 12.69999999999999900 ) ;
ENDSEC;
END-ISO-10303-21;
