ISO-10303-21;
HEADER;
FILE_DESCRIPTION (( 'STEP AP203' ),
    '1' );
FILE_NAME ('110-5213E CaF2 pl-cx 25.4 F125.STEP',
    '2019-01-03T07:00:21',
    ( '' ),
    ( '' ),
    'SwSTEP 2.0',
    'SolidWorks 2017',
    '' );
FILE_SCHEMA (( 'CONFIG_CONTROL_DESIGN' ));
ENDSEC;

DATA;
#1 = CC_DESIGN_APPROVAL ( #215, ( #88 ) ) ;
#2 = CARTESIAN_POINT ( 'NONE',  ( 4.996003610813200500E-016, 2.442490654175340100E-015, 1.566013763459700000 ) ) ;
#3 = DIRECTION ( 'NONE',  ( 1.000000000000000000, 0.0000000000000000000, 0.0000000000000000000 ) ) ;
#4 = SHAPE_DEFINITION_REPRESENTATION ( #95, #228 ) ;
#5 = CARTESIAN_POINT ( 'NONE',  ( -12.90799337767530900, 4.372505635186358900, 1.055606167070174400 ) ) ;
#6 = UNCERTAINTY_MEASURE_WITH_UNIT (LENGTH_MEASURE( 1.000000000000000100E-005 ), #51, 'distance_accuracy_value', 'NONE');
#7 = DATE_TIME_ROLE ( 'creation_date' ) ;
#8 = MECHANICAL_CONTEXT ( 'NONE', #92, 'mechanical' ) ;
#9 = ORIENTED_EDGE ( 'NONE', *, *, #58, .T. ) ;
#10 = AXIS2_PLACEMENT_3D ( 'NONE', #200, #52, #3 ) ;
#11 = PERSON_AND_ORGANIZATION_ROLE ( 'classification_officer' ) ;
#12 = LINE ( 'NONE', #220, #139 ) ;
#13 = EDGE_CURVE ( 'NONE', #79, #55, #205, .T. ) ;
#14 = FACE_OUTER_BOUND ( 'NONE', #42, .T. ) ;
#15 = CALENDAR_DATE ( 2019, 3, 1 ) ;
#16 = EDGE_LOOP ( 'NONE', ( #117, #212, #230 ) ) ;
#17 = DIRECTION ( 'NONE',  ( 1.000000000000000000, -1.776356839400250500E-015, 0.0000000000000000000 ) ) ;
#18 = AXIS2_PLACEMENT_3D ( 'NONE', #67, #184, #224 ) ;
#19 = DIRECTION ( 'NONE',  ( 0.0000000000000000000, 0.0000000000000000000, 1.000000000000000000 ) ) ;
#20 = ORIENTED_EDGE ( 'NONE', *, *, #38, .F. ) ;
#21 = ADVANCED_FACE ( 'NONE', ( #50 ), #190, .T. ) ;
#22 = CARTESIAN_POINT ( 'NONE',  ( 4.357746745765487300, 4.372505635186358000, -0.5457022347001945200 ) ) ;
#23 =( GEOMETRIC_REPRESENTATION_CONTEXT ( 3 ) GLOBAL_UNCERTAINTY_ASSIGNED_CONTEXT ( ( #6 ) ) GLOBAL_UNIT_ASSIGNED_CONTEXT ( ( #51, #203, #147 ) ) REPRESENTATION_CONTEXT ( 'NONE', 'WORKASPACE' ) );
#24 = DATE_AND_TIME ( #57, #130 ) ;
#25 = CARTESIAN_POINT ( 'NONE',  ( -12.38280291649136400, 12.84927370078503700, 3.139784724793412500 ) ) ;
#26 = COORDINATED_UNIVERSAL_TIME_OFFSET ( 2, 0, .AHEAD. ) ;
#27 = ORIENTED_EDGE ( 'NONE', *, *, #13, .T. ) ;
#28 = APPROVAL_STATUS ( 'not_yet_approved' ) ;
#29 = DATE_AND_TIME ( #76, #185 ) ;
#30 = FACE_OUTER_BOUND ( 'NONE', #151, .T. ) ;
#31 = CIRCLE ( 'NONE', #10, 12.69999999999999900 ) ;
#32 = DATE_AND_TIME ( #15, #41 ) ;
#33 = CARTESIAN_POINT ( 'NONE',  ( 4.996003610813200500E-016, 2.442490654175340100E-015, 1.566013763459700000 ) ) ;
#34 = DIRECTION ( 'NONE',  ( 1.000000000000000000, 0.0000000000000000000, -0.0000000000000000000 ) ) ;
#35 = APPROVAL_DATE_TIME ( #213, #210 ) ;
#36 = DIRECTION ( 'NONE',  ( 0.0000000000000000000, 0.0000000000000000000, 1.000000000000000000 ) ) ;
#37 = ORIENTED_EDGE ( 'NONE', *, *, #189, .F. ) ;
#38 = EDGE_CURVE ( 'NONE', #209, #79, #149, .T. ) ;
#39 = PERSON_AND_ORGANIZATION ( #170, #154 ) ;
#40 = APPROVAL_ROLE ( '' ) ;
#41 = LOCAL_TIME ( 9, 0, 21.00000000000000000, #86 ) ;
#42 = EDGE_LOOP ( 'NONE', ( #196, #140, #43, #103, #107 ) ) ;
#43 = ORIENTED_EDGE ( 'NONE', *, *, #47, .F. ) ;
#44 = DIRECTION ( 'NONE',  ( 1.000000000000000000, 0.0000000000000000000, 0.0000000000000000000 ) ) ;
#45 = CARTESIAN_POINT ( 'NONE',  ( 12.90799337767531300, 4.372505635186358000, 1.055606167070168200 ) ) ;
#46 = CARTESIAN_POINT ( 'NONE',  ( 7.105427357600998700E-015, 12.84927370078503700, 1.603629122022616400 ) ) ;
#47 = EDGE_CURVE ( 'NONE', #55, #99, #94, .T. ) ;
#48 = CARTESIAN_POINT ( 'NONE',  ( -4.180442113188769700, -12.84927370078501200, 1.603629122022625300 ) ) ;
#49 = CARTESIAN_POINT ( 'NONE',  ( -12.69999999999999900, 3.997792089092478900E-015, 5.000000000000000000 ) ) ;
#50 = FACE_OUTER_BOUND ( 'NONE', #136, .T. ) ;
#51 =( LENGTH_UNIT ( ) NAMED_UNIT ( * ) SI_UNIT ( .MILLI., .METRE. ) );
#52 = DIRECTION ( 'NONE',  ( -0.0000000000000000000, -0.0000000000000000000, -1.000000000000000000 ) ) ;
#53 = APPROVAL_ROLE ( '' ) ;
#54 = CC_DESIGN_APPROVAL ( #210, ( #137 ) ) ;
#55 = VERTEX_POINT ( 'NONE', #142 ) ;
#56 = AXIS2_PLACEMENT_3D ( 'NONE', #207, #171, #91 ) ;
#57 = CALENDAR_DATE ( 2019, 3, 1 ) ;
#58 = EDGE_CURVE ( 'NONE', #99, #79, #153, .T. ) ;
#59 = CARTESIAN_POINT ( 'NONE',  ( 4.357746745765486400, -4.372505635186334900, -0.5457022347001858600 ) ) ;
#60 = PRODUCT_RELATED_PRODUCT_CATEGORY ( 'detail', '', ( #115 ) ) ;
#61 = CARTESIAN_POINT ( 'NONE',  ( 4.180442113188770600, -12.84927370078501200, 1.603629122022623800 ) ) ;
#62 = VECTOR ( 'NONE', #36, 1000.000000000000000 ) ;
#63 = CLOSED_SHELL ( 'NONE', ( #21, #82, #235, #161, #219 ) ) ;
#64 = AXIS2_PLACEMENT_3D ( 'NONE', #2, #65, #66 ) ;
#65 = DIRECTION ( 'NONE',  ( 0.0000000000000000000, 0.0000000000000000000, 1.000000000000000000 ) ) ;
#66 = DIRECTION ( 'NONE',  ( 1.000000000000000000, 0.0000000000000000000, 0.0000000000000000000 ) ) ;
#67 = CARTESIAN_POINT ( 'NONE',  ( 4.996003610813200500E-016, 2.442490654175340100E-015, 5.000000000000000000 ) ) ;
#68 = PLANE ( 'NONE',  #73 ) ;
#69 = APPROVAL ( #206, 'UNSPECIFIED' ) ;
#70 = SECURITY_CLASSIFICATION_LEVEL ( 'unclassified' ) ;
#71 = DATE_TIME_ROLE ( 'classification_date' ) ;
#72 = DATE_AND_TIME ( #232, #211 ) ;
#73 = AXIS2_PLACEMENT_3D ( 'NONE', #145, #127, #34 ) ;
#74 = APPROVAL_DATE_TIME ( #24, #215 ) ;
#75 = CC_DESIGN_PERSON_AND_ORGANIZATION_ASSIGNMENT ( #114, #112, ( #137 ) ) ;
#76 = CALENDAR_DATE ( 2019, 3, 1 ) ;
#77 = CARTESIAN_POINT ( 'NONE',  ( 7.105427357600999500E-015, 4.372505635186358900, -0.5457022347001945200 ) ) ;
#78 = PRODUCT_DEFINITION ( 'UNKNOWN', '', #137, #208 ) ;
#79 = VERTEX_POINT ( 'NONE', #156 ) ;
#80 = DIRECTION ( 'NONE',  ( -0.0000000000000000000, -0.0000000000000000000, -1.000000000000000000 ) ) ;
#81 = CARTESIAN_POINT ( 'NONE',  ( 12.38280291649136600, -12.84927370078501200, 3.139784724793413000 ) ) ;
#82 = ADVANCED_FACE ( 'NONE', ( #90 ), #98, .T. ) ;
#83 = CARTESIAN_POINT ( 'NONE',  ( -4.180442113188767900, 12.84927370078503900, 1.603629122022618200 ) ) ;
#84 = APPROVAL_DATE_TIME ( #32, #69 ) ;
#85 = CARTESIAN_POINT ( 'NONE',  ( -6.938893903907228400E-015, 4.372505635186358900, -0.5457022347001941900 ) ) ;
#86 = COORDINATED_UNIVERSAL_TIME_OFFSET ( 2, 0, .AHEAD. ) ;
#87 = CARTESIAN_POINT ( 'NONE',  ( -4.357746745765486400, 4.372505635186358000, -0.5457022347001927500 ) ) ;
#88 = SECURITY_CLASSIFICATION ( '', '', #70 ) ;
#89 = APPROVAL_STATUS ( 'not_yet_approved' ) ;
#90 = FACE_OUTER_BOUND ( 'NONE', #159, .T. ) ;
#91 = DIRECTION ( 'NONE',  ( 1.000000000000000000, 0.0000000000000000000, 0.0000000000000000000 ) ) ;
#92 = APPLICATION_CONTEXT ( 'configuration controlled 3d designs of mechanical parts and assemblies' ) ;
#93 = AXIS2_PLACEMENT_3D ( 'NONE', #33, #123, #121 ) ;
#94 = CIRCLE ( 'NONE', #231, 12.69999999999999900 ) ;
#95 = PRODUCT_DEFINITION_SHAPE ( 'NONE', 'NONE',  #78 ) ;
#96 = AXIS2_PLACEMENT_3D ( 'NONE', #186, #162, #182 ) ;
#97 = DIRECTION ( 'NONE',  ( 1.000000000000000000, 0.0000000000000000000, 0.0000000000000000000 ) ) ;
#98 = CYLINDRICAL_SURFACE ( 'NONE', #128, 12.69999999999999900 ) ;
#99 = VERTEX_POINT ( 'NONE', #108 ) ;
#100 = CARTESIAN_POINT ( 'NONE',  ( 4.996003610813200500E-016, 2.442490654175340100E-015, 1.566013763459700000 ) ) ;
#101 = CARTESIAN_POINT ( 'NONE',  ( 8.329082773778685200, 12.84927370078503900, 2.118291080032172600 ) ) ;
#102 = CC_DESIGN_PERSON_AND_ORGANIZATION_ASSIGNMENT ( #158, #11, ( #88 ) ) ;
#103 = ORIENTED_EDGE ( 'NONE', *, *, #202, .T. ) ;
#104 = CARTESIAN_POINT ( 'NONE',  ( 12.38280291649137000, 12.84927370078503700, 3.139784724793406300 ) ) ;
#105 = CARTESIAN_POINT ( 'NONE',  ( -12.38280291649136300, -12.84927370078501200, 3.139784724793419200 ) ) ;
#106 = FACE_OUTER_BOUND ( 'NONE', #16, .T. ) ;
#107 = ORIENTED_EDGE ( 'NONE', *, *, #189, .T. ) ;
#108 = CARTESIAN_POINT ( 'NONE',  ( 7.105427357600998700E-015, -12.70000000000002400, 1.566013763459704900 ) ) ;
#109 = CARTESIAN_POINT ( 'NONE',  ( -12.69999999999999900, 3.997792089092478900E-015, 1.566013763459700000 ) ) ;
#110 = CC_DESIGN_PERSON_AND_ORGANIZATION_ASSIGNMENT ( #225, #188, ( #78 ) ) ;
#111 = ORIENTED_EDGE ( 'NONE', *, *, #193, .F. ) ;
#112 = PERSON_AND_ORGANIZATION_ROLE ( 'design_supplier' ) ;
#113 = MANIFOLD_SOLID_BREP ( 'Imported1', #63 ) ;
#114 = PERSON_AND_ORGANIZATION ( #170, #154 ) ;
#115 = PRODUCT ( '110-5213E CaF2 pl-cx 25.4 F125', '110-5213E CaF2 pl-cx 25.4 F125', '', ( #8 ) ) ;
#116 = APPROVAL_PERSON_ORGANIZATION ( #124, #210, #40 ) ;
#117 = ORIENTED_EDGE ( 'NONE', *, *, #58, .F. ) ;
#118 = CC_DESIGN_DATE_AND_TIME_ASSIGNMENT ( #72, #71, ( #88 ) ) ;
#119 = LINE ( 'NONE', #223, #62 ) ;
#120 = DIRECTION ( 'NONE',  ( 0.0000000000000000000, -1.000000000000000000, -2.654511822458771300E-016 ) ) ;
#121 = DIRECTION ( 'NONE',  ( 1.000000000000000000, 8.881784197001252300E-016, 0.0000000000000000000 ) ) ;
#122 = CC_DESIGN_DATE_AND_TIME_ASSIGNMENT ( #29, #7, ( #78 ) ) ;
#123 = DIRECTION ( 'NONE',  ( -0.0000000000000000000, -0.0000000000000000000, -1.000000000000000000 ) ) ;
#124 = PERSON_AND_ORGANIZATION ( #170, #154 ) ;
#125 = CARTESIAN_POINT ( 'NONE',  ( 8.682343247412992700, -4.372505635186335800, -0.009211975545588177800 ) ) ;
#126 = CARTESIAN_POINT ( 'NONE',  ( -4.357746745765485500, -4.372505635186334900, -0.5457022347001840900 ) ) ;
#127 = DIRECTION ( 'NONE',  ( 0.0000000000000000000, 0.0000000000000000000, 1.000000000000000000 ) ) ;
#128 = AXIS2_PLACEMENT_3D ( 'NONE', #100, #19, #180 ) ;
#129 = CARTESIAN_POINT ( 'NONE',  ( -8.682343247412989100, -4.372505635186334900, -0.009211975545582106300 ) ) ;
#130 = LOCAL_TIME ( 9, 0, 21.00000000000000000, #177 ) ;
#131 = ORIENTED_EDGE ( 'NONE', *, *, #193, .T. ) ;
#132 = APPROVAL_ROLE ( '' ) ;
#133 = PERSON_AND_ORGANIZATION_ROLE ( 'design_owner' ) ;
#134 = APPROVAL_PERSON_ORGANIZATION ( #191, #69, #53 ) ;
#135 = LOCAL_TIME ( 9, 0, 21.00000000000000000, #199 ) ;
#136 = EDGE_LOOP ( 'NONE', ( #192, #9, #27 ) ) ;
#137 = PRODUCT_DEFINITION_FORMATION_WITH_SPECIFIED_SOURCE ( 'ANY', '', #115, .NOT_KNOWN. ) ;
#138 = CIRCLE ( 'NONE', #18, 12.69999999999999900 ) ;
#139 = VECTOR ( 'NONE', #143, 1000.000000000000000 ) ;
#140 = ORIENTED_EDGE ( 'NONE', *, *, #175, .F. ) ;
#141 = CARTESIAN_POINT ( 'NONE',  ( 12.90799337767531100, -4.372505635186335800, 1.055606167070176600 ) ) ;
#142 = CARTESIAN_POINT ( 'NONE',  ( 12.69999999999999900, 2.442490654175340100E-015, 1.566013763459700000 ) ) ;
#143 = DIRECTION ( 'NONE',  ( 0.0000000000000000000, 0.0000000000000000000, 1.000000000000000000 ) ) ;
#144 = CARTESIAN_POINT ( 'NONE',  ( -3.469446951953614200E-015, 12.84927370078503700, 1.603629122022616900 ) ) ;
#145 = CARTESIAN_POINT ( 'NONE',  ( 0.0000000000000000000, 26.11199999999999800, 5.000000000000000000 ) ) ;
#146 = CYLINDRICAL_SURFACE ( 'NONE', #64, 12.69999999999999900 ) ;
#147 =( NAMED_UNIT ( * ) SI_UNIT ( $, .STERADIAN. ) SOLID_ANGLE_UNIT ( ) );
#148 = APPLICATION_PROTOCOL_DEFINITION ( 'international standard', 'config_control_design', 1994, #150 ) ;
#149 = CIRCLE ( 'NONE', #93, 12.69999999999999900 ) ;
#150 = APPLICATION_CONTEXT ( 'configuration controlled 3d designs of mechanical parts and assemblies' ) ;
#151 = EDGE_LOOP ( 'NONE', ( #37, #111 ) ) ;
#152 =( BOUNDED_SURFACE ( )  B_SPLINE_SURFACE ( 3, 3, ( 
 ( #105, #222, #48, #165 ),
 ( #198, #129, #126, #183 ),
 ( #5, #166, #87, #85 ),
 ( #25, #167, #83, #144 ) ),
 .UNSPECIFIED., .F., .F., .F. ) 
 B_SPLINE_SURFACE_WITH_KNOTS ( ( 4, 4 ),
 ( 4, 4 ),
 ( 0.0000000000000000000, 1.000000000000000000 ),
 ( 0.0000000000000000000, 1.000000000000000000 ),
 .UNSPECIFIED. ) 
 GEOMETRIC_REPRESENTATION_ITEM ( )  RATIONAL_B_SPLINE_SURFACE ( (
 ( 1.000000000000000000, 0.9949285343929658000, 0.9949285343929658000, 1.000000000000000000),
 ( 0.9795507635549271000, 0.9745830055472142200, 0.9745830055472142200, 0.9795507635549271000),
 ( 0.9795507635549271000, 0.9745830055472142200, 0.9745830055472142200, 0.9795507635549271000),
 ( 1.000000000000000000, 0.9949285343929658000, 0.9949285343929658000, 1.000000000000000000) ) ) 
 REPRESENTATION_ITEM ( '' )  SURFACE ( )  );
#153 = CIRCLE ( 'NONE', #181, 52.28000000000000100 ) ;
#154 = ORGANIZATION ( 'UNSPECIFIED', 'UNSPECIFIED', '' ) ;
#155 = ORIENTED_EDGE ( 'NONE', *, *, #13, .F. ) ;
#156 = CARTESIAN_POINT ( 'NONE',  ( 7.105427357600998700E-015, 12.70000000000003500, 1.566013763459704900 ) ) ;
#157 = CC_DESIGN_PERSON_AND_ORGANIZATION_ASSIGNMENT ( #39, #133, ( #115 ) ) ;
#158 = PERSON_AND_ORGANIZATION ( #170, #154 ) ;
#159 = EDGE_LOOP ( 'NONE', ( #20, #216, #131, #178, #155 ) ) ;
#160 = CARTESIAN_POINT ( 'NONE',  ( 7.105427357600999500E-015, -4.372505635186335800, -0.5457022347001856400 ) ) ;
#161 = ADVANCED_FACE ( 'NONE', ( #14 ), #146, .T. ) ;
#162 = DIRECTION ( 'NONE',  ( -0.0000000000000000000, -0.0000000000000000000, -1.000000000000000000 ) ) ;
#163 = CC_DESIGN_SECURITY_CLASSIFICATION ( #88, ( #137 ) ) ;
#164 = APPROVAL_PERSON_ORGANIZATION ( #172, #215, #132 ) ;
#165 = CARTESIAN_POINT ( 'NONE',  ( -6.938893903907228400E-015, -12.84927370078501200, 1.603629122022623800 ) ) ;
#166 = CARTESIAN_POINT ( 'NONE',  ( -8.682343247412990900, 4.372505635186358000, -0.009211975545590993200 ) ) ;
#167 = CARTESIAN_POINT ( 'NONE',  ( -8.329082773778679900, 12.84927370078503900, 2.118291080032178400 ) ) ;
#168 = VERTEX_POINT ( 'NONE', #49 ) ;
#169 = EDGE_CURVE ( 'NONE', #209, #168, #119, .T. ) ;
#170 = PERSON ( 'UNSPECIFIED', 'UNSPECIFIED', 'UNSPECIFIED', ('UNSPECIFIED'), ('UNSPECIFIED'), ('UNSPECIFIED') ) ;
#171 = DIRECTION ( 'NONE',  ( 0.0000000000000000000, 0.0000000000000000000, 1.000000000000000000 ) ) ;
#172 = PERSON_AND_ORGANIZATION ( #170, #154 ) ;
#173 = AXIS2_PLACEMENT_3D ( 'NONE', #176, #233, #17 ) ;
#174 = COORDINATED_UNIVERSAL_TIME_OFFSET ( 2, 0, .AHEAD. ) ;
#175 = EDGE_CURVE ( 'NONE', #99, #209, #31, .T. ) ;
#176 = CARTESIAN_POINT ( 'NONE',  ( 4.996003610813200500E-016, 2.442490654175340100E-015, 1.566013763459700000 ) ) ;
#177 = COORDINATED_UNIVERSAL_TIME_OFFSET ( 2, 0, .AHEAD. ) ;
#178 = ORIENTED_EDGE ( 'NONE', *, *, #202, .F. ) ;
#179 = CARTESIAN_POINT ( 'NONE',  ( 7.105427357600998700E-015, -12.84927370078501200, 1.603629122022623300 ) ) ;
#180 = DIRECTION ( 'NONE',  ( 1.000000000000000000, 0.0000000000000000000, 0.0000000000000000000 ) ) ;
#181 = AXIS2_PLACEMENT_3D ( 'NONE', #234, #97, #120 ) ;
#182 = DIRECTION ( 'NONE',  ( 1.000000000000000000, 0.0000000000000000000, 0.0000000000000000000 ) ) ;
#183 = CARTESIAN_POINT ( 'NONE',  ( -6.938893903907228400E-015, -4.372505635186335800, -0.5457022347001852000 ) ) ;
#184 = DIRECTION ( 'NONE',  ( -0.0000000000000000000, -0.0000000000000000000, -1.000000000000000000 ) ) ;
#185 = LOCAL_TIME ( 9, 0, 21.00000000000000000, #174 ) ;
#186 = CARTESIAN_POINT ( 'NONE',  ( 4.996003610813200500E-016, 2.442490654175340100E-015, 5.000000000000000000 ) ) ;
#187 = CC_DESIGN_APPROVAL ( #69, ( #78 ) ) ;
#188 = PERSON_AND_ORGANIZATION_ROLE ( 'creator' ) ;
#189 = EDGE_CURVE ( 'NONE', #201, #168, #221, .T. ) ;
#190 =( BOUNDED_SURFACE ( )  B_SPLINE_SURFACE ( 3, 3, ( 
 ( #179, #61, #194, #81 ),
 ( #160, #59, #125, #141 ),
 ( #77, #22, #217, #45 ),
 ( #46, #218, #101, #104 ) ),
 .UNSPECIFIED., .F., .F., .F. ) 
 B_SPLINE_SURFACE_WITH_KNOTS ( ( 4, 4 ),
 ( 4, 4 ),
 ( 0.0000000000000000000, 1.000000000000000000 ),
 ( 0.0000000000000000000, 1.000000000000000000 ),
 .UNSPECIFIED. ) 
 GEOMETRIC_REPRESENTATION_ITEM ( )  RATIONAL_B_SPLINE_SURFACE ( (
 ( 1.000000000000000000, 0.9949285343929658000, 0.9949285343929658000, 1.000000000000000000),
 ( 0.9795507635549271000, 0.9745830055472142200, 0.9745830055472142200, 0.9795507635549271000),
 ( 0.9795507635549271000, 0.9745830055472142200, 0.9745830055472142200, 0.9795507635549271000),
 ( 1.000000000000000000, 0.9949285343929658000, 0.9949285343929658000, 1.000000000000000000) ) ) 
 REPRESENTATION_ITEM ( '' )  SURFACE ( )  );
#191 = PERSON_AND_ORGANIZATION ( #170, #154 ) ;
#192 = ORIENTED_EDGE ( 'NONE', *, *, #47, .T. ) ;
#193 = EDGE_CURVE ( 'NONE', #168, #201, #138, .T. ) ;
#194 = CARTESIAN_POINT ( 'NONE',  ( 8.329082773778681700, -12.84927370078501200, 2.118291080032180100 ) ) ;
#195 = CARTESIAN_POINT ( 'NONE',  ( 4.996003610813200500E-016, 2.442490654175340100E-015, 1.566013763459700000 ) ) ;
#196 = ORIENTED_EDGE ( 'NONE', *, *, #169, .F. ) ;
#197 = CARTESIAN_POINT ( 'NONE',  ( 12.69999999999999900, 2.442490654175340100E-015, 5.000000000000000000 ) ) ;
#198 = CARTESIAN_POINT ( 'NONE',  ( -12.90799337767530700, -4.372505635186335800, 1.055606167070183500 ) ) ;
#199 = COORDINATED_UNIVERSAL_TIME_OFFSET ( 2, 0, .AHEAD. ) ;
#200 = CARTESIAN_POINT ( 'NONE',  ( 4.996003610813200500E-016, 2.442490654175340100E-015, 1.566013763459700000 ) ) ;
#201 = VERTEX_POINT ( 'NONE', #197 ) ;
#202 = EDGE_CURVE ( 'NONE', #55, #201, #12, .T. ) ;
#203 =( NAMED_UNIT ( * ) PLANE_ANGLE_UNIT ( ) SI_UNIT ( $, .RADIAN. ) );
#204 = PERSON_AND_ORGANIZATION_ROLE ( 'creator' ) ;
#205 = CIRCLE ( 'NONE', #173, 12.69999999999999900 ) ;
#206 = APPROVAL_STATUS ( 'not_yet_approved' ) ;
#207 = CARTESIAN_POINT ( 'NONE',  ( 0.0000000000000000000, 0.0000000000000000000, 0.0000000000000000000 ) ) ;
#208 = DESIGN_CONTEXT ( 'detailed design', #150, 'design' ) ;
#209 = VERTEX_POINT ( 'NONE', #109 ) ;
#210 = APPROVAL ( #28, 'UNSPECIFIED' ) ;
#211 = LOCAL_TIME ( 9, 0, 21.00000000000000000, #26 ) ;
#212 = ORIENTED_EDGE ( 'NONE', *, *, #175, .T. ) ;
#213 = DATE_AND_TIME ( #214, #135 ) ;
#214 = CALENDAR_DATE ( 2019, 3, 1 ) ;
#215 = APPROVAL ( #89, 'UNSPECIFIED' ) ;
#216 = ORIENTED_EDGE ( 'NONE', *, *, #169, .T. ) ;
#217 = CARTESIAN_POINT ( 'NONE',  ( 8.682343247412992700, 4.372505635186357200, -0.009211975545596851400 ) ) ;
#218 = CARTESIAN_POINT ( 'NONE',  ( 4.180442113188772300, 12.84927370078503900, 1.603629122022616600 ) ) ;
#219 = ADVANCED_FACE ( 'NONE', ( #30 ), #68, .T. ) ;
#220 = CARTESIAN_POINT ( 'NONE',  ( 12.69999999999999900, 2.442490654175340100E-015, 1.566013763459700000 ) ) ;
#221 = CIRCLE ( 'NONE', #96, 12.69999999999999900 ) ;
#222 = CARTESIAN_POINT ( 'NONE',  ( -8.329082773778679900, -12.84927370078501200, 2.118291080032185900 ) ) ;
#223 = CARTESIAN_POINT ( 'NONE',  ( -12.69999999999999900, 3.997792089092478900E-015, 1.566013763459700000 ) ) ;
#224 = DIRECTION ( 'NONE',  ( 1.000000000000000000, 0.0000000000000000000, 0.0000000000000000000 ) ) ;
#225 = PERSON_AND_ORGANIZATION ( #170, #154 ) ;
#226 = CC_DESIGN_PERSON_AND_ORGANIZATION_ASSIGNMENT ( #229, #204, ( #137 ) ) ;
#227 = APPLICATION_PROTOCOL_DEFINITION ( 'international standard', 'config_control_design', 1994, #92 ) ;
#228 = ADVANCED_BREP_SHAPE_REPRESENTATION ( '110-5213E CaF2 pl-cx 25.4 F125', ( #113, #56 ), #23 ) ;
#229 = PERSON_AND_ORGANIZATION ( #170, #154 ) ;
#230 = ORIENTED_EDGE ( 'NONE', *, *, #38, .T. ) ;
#231 = AXIS2_PLACEMENT_3D ( 'NONE', #195, #80, #44 ) ;
#232 = CALENDAR_DATE ( 2019, 3, 1 ) ;
#233 = DIRECTION ( 'NONE',  ( -0.0000000000000000000, -0.0000000000000000000, -1.000000000000000000 ) ) ;
#234 = CARTESIAN_POINT ( 'NONE',  ( 7.105427357601000300E-015, 7.105427357601000300E-015, 52.28000000000000100 ) ) ;
#235 = ADVANCED_FACE ( 'NONE', ( #106 ), #152, .T. ) ;
ENDSEC;
END-ISO-10303-21;
