ISO-10303-21;
HEADER;
FILE_DESCRIPTION (( 'STEP AP203' ),
    '1' );
FILE_NAME ('110-5211E CaF2 pl-cx 25.4 F100.STEP',
    '2019-01-02T15:20:48',
    ( '' ),
    ( '' ),
    'SwSTEP 2.0',
    'SolidWorks 2017',
    '' );
FILE_SCHEMA (( 'CONFIG_CONTROL_DESIGN' ));
ENDSEC;

DATA;
#1 = DATE_AND_TIME ( #93, #124 ) ;
#2 = VERTEX_POINT ( 'NONE', #183 ) ;
#3 = DATE_AND_TIME ( #73, #215 ) ;
#4 = AXIS2_PLACEMENT_3D ( 'NONE', #90, #221, #112 ) ;
#5 = ADVANCED_BREP_SHAPE_REPRESENTATION ( '110-5211E CaF2 pl-cx 25.4 F100', ( #224, #4 ), #26 ) ;
#6 = PERSON_AND_ORGANIZATION ( #34, #226 ) ;
#7 = PERSON_AND_ORGANIZATION ( #34, #226 ) ;
#8 = ORIENTED_EDGE ( 'NONE', *, *, #24, .F. ) ;
#9 = EDGE_CURVE ( 'NONE', #74, #54, #104, .T. ) ;
#10 = ORIENTED_EDGE ( 'NONE', *, *, #115, .F. ) ;
#11 = CARTESIAN_POINT ( 'NONE',  ( 4.416813948665759600, -4.425070006512446400, -0.6963757412691843300 ) ) ;
#12 = PERSON_AND_ORGANIZATION ( #34, #226 ) ;
#13 = DATE_TIME_ROLE ( 'classification_date' ) ;
#14 = EDGE_CURVE ( 'NONE', #2, #74, #185, .T. ) ;
#15 = CC_DESIGN_PERSON_AND_ORGANIZATION_ASSIGNMENT ( #203, #182, ( #56 ) ) ;
#16 = CARTESIAN_POINT ( 'NONE',  ( -4.134501606058763400, 12.84744760734598800, 2.021810013811226300 ) ) ;
#17 = APPLICATION_CONTEXT ( 'configuration controlled 3d designs of mechanical parts and assemblies' ) ;
#18 = EDGE_LOOP ( 'NONE', ( #160, #216 ) ) ;
#19 = CARTESIAN_POINT ( 'NONE',  ( -8.780564511299104400, 4.425070006512458900, -0.01378766325595874900 ) ) ;
#20 = APPROVAL_ROLE ( '' ) ;
#21 = CARTESIAN_POINT ( 'NONE',  ( -8.780564511299104400, -4.425070006512446400, -0.01378766325596005000 ) ) ;
#22 = COORDINATED_UNIVERSAL_TIME_OFFSET ( 2, 0, .AHEAD. ) ;
#23 = ORIENTED_EDGE ( 'NONE', *, *, #45, .T. ) ;
#24 = EDGE_CURVE ( 'NONE', #171, #94, #208, .T. ) ;
#25 = ORIENTED_EDGE ( 'NONE', *, *, #192, .T. ) ;
#26 =( GEOMETRIC_REPRESENTATION_CONTEXT ( 3 ) GLOBAL_UNCERTAINTY_ASSIGNED_CONTEXT ( ( #58 ) ) GLOBAL_UNIT_ASSIGNED_CONTEXT ( ( #204, #167, #164 ) ) REPRESENTATION_CONTEXT ( 'NONE', 'WORKASPACE' ) );
#27 = CC_DESIGN_PERSON_AND_ORGANIZATION_ASSIGNMENT ( #6, #231, ( #129 ) ) ;
#28 = DIRECTION ( 'NONE',  ( 1.000000000000000000, 0.0000000000000000000, -0.0000000000000000000 ) ) ;
#29 = CARTESIAN_POINT ( 'NONE',  ( -7.105427357601000300E-015, 7.105427357601000300E-015, 41.82999999999999800 ) ) ;
#30 = VECTOR ( 'NONE', #141, 1000.000000000000000 ) ;
#31 = DIRECTION ( 'NONE',  ( 1.000000000000000000, 0.0000000000000000000, 0.0000000000000000000 ) ) ;
#32 = CARTESIAN_POINT ( 'NONE',  ( 4.416813948665759600, 4.425070006512456200, -0.6963757412691835600 ) ) ;
#33 = DIRECTION ( 'NONE',  ( 0.0000000000000000000, 0.0000000000000000000, 1.000000000000000000 ) ) ;
#34 = PERSON ( 'UNSPECIFIED', 'UNSPECIFIED', 'UNSPECIFIED', ('UNSPECIFIED'), ('UNSPECIFIED'), ('UNSPECIFIED') ) ;
#35 = DATE_TIME_ROLE ( 'creation_date' ) ;
#36 = CARTESIAN_POINT ( 'NONE',  ( -4.134501606058762500, -12.84744760734597300, 2.021810013811225800 ) ) ;
#37 = CARTESIAN_POINT ( 'NONE',  ( -1.908195823574488400E-014, 4.425070006512457100, -0.6963757412691881100 ) ) ;
#38 = PERSON_AND_ORGANIZATION_ROLE ( 'creator' ) ;
#39 = ADVANCED_FACE ( 'NONE', ( #177 ), #61, .T. ) ;
#40 = APPROVAL_STATUS ( 'not_yet_approved' ) ;
#41 = FACE_OUTER_BOUND ( 'NONE', #121, .T. ) ;
#42 = APPROVAL ( #40, 'UNSPECIFIED' ) ;
#43 = APPROVAL ( #83, 'UNSPECIFIED' ) ;
#44 = CARTESIAN_POINT ( 'NONE',  ( -7.105427357601000300E-015, -4.425070006512447300, -0.6963757412691845600 ) ) ;
#45 = EDGE_CURVE ( 'NONE', #94, #149, #158, .T. ) ;
#46 = PERSON_AND_ORGANIZATION ( #34, #226 ) ;
#47 = CARTESIAN_POINT ( 'NONE',  ( 4.996003610813200500E-016, 2.442490654175340100E-015, 1.974524842877610300 ) ) ;
#48 = DIRECTION ( 'NONE',  ( 1.000000000000000000, -8.881784197001252300E-016, 0.0000000000000000000 ) ) ;
#49 = AXIS2_PLACEMENT_3D ( 'NONE', #88, #67, #187 ) ;
#50 = DIRECTION ( 'NONE',  ( -0.0000000000000000000, -0.0000000000000000000, -1.000000000000000000 ) ) ;
#51 = ADVANCED_FACE ( 'NONE', ( #41 ), #176, .T. ) ;
#52 = CARTESIAN_POINT ( 'NONE',  ( -12.98639991766672900, -4.425070006512445500, 1.334987333425439600 ) ) ;
#53 = APPROVAL ( #142, 'UNSPECIFIED' ) ;
#54 = VERTEX_POINT ( 'NONE', #135 ) ;
#55 = FACE_OUTER_BOUND ( 'NONE', #128, .T. ) ;
#56 = PRODUCT_DEFINITION_FORMATION_WITH_SPECIFIED_SOURCE ( 'ANY', '', #163, .NOT_KNOWN. ) ;
#57 = AXIS2_PLACEMENT_3D ( 'NONE', #47, #157, #230 ) ;
#58 = UNCERTAINTY_MEASURE_WITH_UNIT (LENGTH_MEASURE( 1.000000000000000100E-005 ), #204, 'distance_accuracy_value', 'NONE');
#59 = CC_DESIGN_DATE_AND_TIME_ASSIGNMENT ( #102, #13, ( #129 ) ) ;
#60 = CARTESIAN_POINT ( 'NONE',  ( 8.780564511299088400, -4.425070006512446400, -0.01378766325595961800 ) ) ;
#61 = PLANE ( 'NONE',  #113 ) ;
#62 = AXIS2_PLACEMENT_3D ( 'NONE', #66, #50, #184 ) ;
#63 = CALENDAR_DATE ( 2019, 2, 1 ) ;
#64 = DIRECTION ( 'NONE',  ( 1.000000000000000000, 0.0000000000000000000, 0.0000000000000000000 ) ) ;
#65 = CC_DESIGN_APPROVAL ( #53, ( #109 ) ) ;
#66 = CARTESIAN_POINT ( 'NONE',  ( 4.996003610813200500E-016, 2.442490654175340100E-015, 5.000000000000000000 ) ) ;
#67 = DIRECTION ( 'NONE',  ( -0.0000000000000000000, -0.0000000000000000000, -1.000000000000000000 ) ) ;
#68 = CARTESIAN_POINT ( 'NONE',  ( -12.15633982788289200, -12.84744760734597200, 3.923333146192760500 ) ) ;
#69 = CARTESIAN_POINT ( 'NONE',  ( -12.98639991766672900, 4.425070006512458000, 1.334987333425441000 ) ) ;
#70 = ADVANCED_FACE ( 'NONE', ( #101 ), #194, .T. ) ;
#71 = AXIS2_PLACEMENT_3D ( 'NONE', #92, #148, #125 ) ;
#72 = CALENDAR_DATE ( 2019, 2, 1 ) ;
#73 = CALENDAR_DATE ( 2019, 2, 1 ) ;
#74 = VERTEX_POINT ( 'NONE', #144 ) ;
#75 = ORIENTED_EDGE ( 'NONE', *, *, #153, .F. ) ;
#76 = AXIS2_PLACEMENT_3D ( 'NONE', #228, #119, #64 ) ;
#77 = COORDINATED_UNIVERSAL_TIME_OFFSET ( 2, 0, .AHEAD. ) ;
#78 = CARTESIAN_POINT ( 'NONE',  ( 12.15633982788287800, 12.84744760734598600, 3.923333146192762300 ) ) ;
#79 = CARTESIAN_POINT ( 'NONE',  ( 12.69999999999999900, 2.442490654175340100E-015, 1.974524842877610300 ) ) ;
#80 = CC_DESIGN_PERSON_AND_ORGANIZATION_ASSIGNMENT ( #107, #38, ( #56 ) ) ;
#81 = DATE_AND_TIME ( #154, #133 ) ;
#82 = EDGE_LOOP ( 'NONE', ( #198, #200, #23, #75, #225 ) ) ;
#83 = APPROVAL_STATUS ( 'not_yet_approved' ) ;
#84 = DIRECTION ( 'NONE',  ( 1.000000000000000000, 0.0000000000000000000, 0.0000000000000000000 ) ) ;
#85 = FACE_OUTER_BOUND ( 'NONE', #147, .T. ) ;
#86 = APPLICATION_PROTOCOL_DEFINITION ( 'international standard', 'config_control_design', 1994, #170 ) ;
#87 = CC_DESIGN_APPROVAL ( #42, ( #129 ) ) ;
#88 = CARTESIAN_POINT ( 'NONE',  ( 4.996003610813200500E-016, 2.442490654175340100E-015, 1.974524842877610300 ) ) ;
#89 = CARTESIAN_POINT ( 'NONE',  ( -8.219331512715209300, 12.84744760734598600, 2.660768669897422900 ) ) ;
#90 = CARTESIAN_POINT ( 'NONE',  ( 0.0000000000000000000, 0.0000000000000000000, 0.0000000000000000000 ) ) ;
#91 = ADVANCED_FACE ( 'NONE', ( #85 ), #95, .T. ) ;
#92 = CARTESIAN_POINT ( 'NONE',  ( 4.996003610813200500E-016, 2.442490654175340100E-015, 5.000000000000000000 ) ) ;
#93 = CALENDAR_DATE ( 2019, 2, 1 ) ;
#94 = VERTEX_POINT ( 'NONE', #235 ) ;
#95 =( BOUNDED_SURFACE ( )  B_SPLINE_SURFACE ( 3, 3, ( 
 ( #122, #180, #106, #156 ),
 ( #44, #11, #60, #197 ),
 ( #138, #32, #159, #105 ),
 ( #134, #199, #179, #78 ) ),
 .UNSPECIFIED., .F., .F., .T. ) 
 B_SPLINE_SURFACE_WITH_KNOTS ( ( 4, 4 ),
 ( 4, 4 ),
 ( 0.0000000000000000000, 1.000000000000000000 ),
 ( 0.0000000000000000000, 1.000000000000000000 ),
 .UNSPECIFIED. ) 
 GEOMETRIC_REPRESENTATION_ITEM ( )  RATIONAL_B_SPLINE_SURFACE ( (
 ( 1.000000000000000000, 0.9919906993820787300, 0.9919906993820787300, 1.000000000000000000),
 ( 0.9677773525569969300, 0.9600261328091519400, 0.9600261328091519400, 0.9677773525569969300),
 ( 0.9677773525569969300, 0.9600261328091519400, 0.9600261328091519400, 0.9677773525569969300),
 ( 1.000000000000000000, 0.9919906993820787300, 0.9919906993820787300, 1.000000000000000000) ) ) 
 REPRESENTATION_ITEM ( '' )  SURFACE ( )  );
#96 = APPROVAL_ROLE ( '' ) ;
#97 = AXIS2_PLACEMENT_3D ( 'NONE', #110, #207, #84 ) ;
#98 = CC_DESIGN_PERSON_AND_ORGANIZATION_ASSIGNMENT ( #46, #205, ( #163 ) ) ;
#99 = CYLINDRICAL_SURFACE ( 'NONE', #76, 12.69999999999999900 ) ;
#100 = CIRCLE ( 'NONE', #62, 12.69999999999999900 ) ;
#101 = FACE_OUTER_BOUND ( 'NONE', #82, .T. ) ;
#102 = DATE_AND_TIME ( #63, #223 ) ;
#103 = CC_DESIGN_SECURITY_CLASSIFICATION ( #129, ( #56 ) ) ;
#104 = CIRCLE ( 'NONE', #57, 12.69999999999999900 ) ;
#105 = CARTESIAN_POINT ( 'NONE',  ( 12.98639991766672000, 4.425070006512458000, 1.334987333425442500 ) ) ;
#106 = CARTESIAN_POINT ( 'NONE',  ( 8.219331512715200500, -12.84744760734597300, 2.660768669897423800 ) ) ;
#107 = PERSON_AND_ORGANIZATION ( #34, #226 ) ;
#108 = ORIENTED_EDGE ( 'NONE', *, *, #153, .T. ) ;
#109 = PRODUCT_DEFINITION ( 'UNKNOWN', '', #56, #150 ) ;
#110 = CARTESIAN_POINT ( 'NONE',  ( 4.996003610813200500E-016, 2.442490654175340100E-015, 1.974524842877610300 ) ) ;
#111 = APPROVAL_DATE_TIME ( #81, #43 ) ;
#112 = DIRECTION ( 'NONE',  ( 1.000000000000000000, 0.0000000000000000000, 0.0000000000000000000 ) ) ;
#113 = AXIS2_PLACEMENT_3D ( 'NONE', #162, #234, #28 ) ;
#114 = LINE ( 'NONE', #79, #206 ) ;
#115 = EDGE_CURVE ( 'NONE', #54, #2, #131, .T. ) ;
#116 = APPROVAL_DATE_TIME ( #1, #53 ) ;
#117 = ORIENTED_EDGE ( 'NONE', *, *, #14, .T. ) ;
#118 = CC_DESIGN_APPROVAL ( #43, ( #56 ) ) ;
#119 = DIRECTION ( 'NONE',  ( 0.0000000000000000000, 0.0000000000000000000, 1.000000000000000000 ) ) ;
#120 = APPROVAL_DATE_TIME ( #3, #42 ) ;
#121 = EDGE_LOOP ( 'NONE', ( #10, #213, #191 ) ) ;
#122 = CARTESIAN_POINT ( 'NONE',  ( -7.105427357601000300E-015, -12.84744760734597300, 2.021810013811228900 ) ) ;
#123 = APPLICATION_PROTOCOL_DEFINITION ( 'international standard', 'config_control_design', 1994, #17 ) ;
#124 = LOCAL_TIME ( 17, 20, 48.00000000000000000, #77 ) ;
#125 = DIRECTION ( 'NONE',  ( 1.000000000000000000, 0.0000000000000000000, 0.0000000000000000000 ) ) ;
#126 = DIRECTION ( 'NONE',  ( 0.0000000000000000000, -1.000000000000000000, 6.635327663310761200E-016 ) ) ;
#127 = CARTESIAN_POINT ( 'NONE',  ( -1.214306433183765000E-014, -12.84744760734597200, 2.021810013811224500 ) ) ;
#128 = EDGE_LOOP ( 'NONE', ( #8, #195, #155, #108, #25 ) ) ;
#129 = SECURITY_CLASSIFICATION ( '', '', #218 ) ;
#130 = PERSON_AND_ORGANIZATION ( #34, #226 ) ;
#131 = CIRCLE ( 'NONE', #132, 41.82999999999999800 ) ;
#132 = AXIS2_PLACEMENT_3D ( 'NONE', #29, #31, #126 ) ;
#133 = LOCAL_TIME ( 17, 20, 48.00000000000000000, #212 ) ;
#134 = CARTESIAN_POINT ( 'NONE',  ( -7.105427357601000300E-015, 12.84744760734598400, 2.021810013811228900 ) ) ;
#135 = CARTESIAN_POINT ( 'NONE',  ( -7.105427357601000300E-015, -12.69999999999999900, 1.974524842877611400 ) ) ;
#136 = DATE_AND_TIME ( #72, #210 ) ;
#137 = CARTESIAN_POINT ( 'NONE',  ( -12.69999999999999900, 3.997792089092478900E-015, 1.974524842877610300 ) ) ;
#138 = CARTESIAN_POINT ( 'NONE',  ( -7.105427357601000300E-015, 4.425070006512456200, -0.6963757412691837800 ) ) ;
#139 = CARTESIAN_POINT ( 'NONE',  ( 4.996003610813200500E-016, 2.442490654175340100E-015, 1.974524842877610300 ) ) ;
#140 = PERSON_AND_ORGANIZATION_ROLE ( 'creator' ) ;
#141 = DIRECTION ( 'NONE',  ( 0.0000000000000000000, 0.0000000000000000000, 1.000000000000000000 ) ) ;
#142 = APPROVAL_STATUS ( 'not_yet_approved' ) ;
#143 = CARTESIAN_POINT ( 'NONE',  ( 4.996003610813200500E-016, 2.442490654175340100E-015, 1.974524842877610300 ) ) ;
#144 = CARTESIAN_POINT ( 'NONE',  ( 12.69999999999999900, 2.442490654175340100E-015, 1.974524842877610300 ) ) ;
#145 = SHAPE_DEFINITION_REPRESENTATION ( #173, #5 ) ;
#146 = APPROVAL_ROLE ( '' ) ;
#147 = EDGE_LOOP ( 'NONE', ( #172, #175, #117 ) ) ;
#148 = DIRECTION ( 'NONE',  ( -0.0000000000000000000, -0.0000000000000000000, -1.000000000000000000 ) ) ;
#149 = VERTEX_POINT ( 'NONE', #227 ) ;
#150 = DESIGN_CONTEXT ( 'detailed design', #17, 'design' ) ;
#151 = COORDINATED_UNIVERSAL_TIME_OFFSET ( 2, 0, .AHEAD. ) ;
#152 = CIRCLE ( 'NONE', #49, 12.69999999999999900 ) ;
#153 = EDGE_CURVE ( 'NONE', #74, #149, #114, .T. ) ;
#154 = CALENDAR_DATE ( 2019, 2, 1 ) ;
#155 = ORIENTED_EDGE ( 'NONE', *, *, #9, .F. ) ;
#156 = CARTESIAN_POINT ( 'NONE',  ( 12.15633982788288500, -12.84744760734597200, 3.923333146192762700 ) ) ;
#157 = DIRECTION ( 'NONE',  ( -0.0000000000000000000, -0.0000000000000000000, -1.000000000000000000 ) ) ;
#158 = CIRCLE ( 'NONE', #71, 12.69999999999999900 ) ;
#159 = CARTESIAN_POINT ( 'NONE',  ( 8.780564511299086700, 4.425070006512457100, -0.01378766325595874800 ) ) ;
#160 = ORIENTED_EDGE ( 'NONE', *, *, #192, .F. ) ;
#161 = CARTESIAN_POINT ( 'NONE',  ( -12.69999999999999900, 3.997792089092478900E-015, 1.974524842877610300 ) ) ;
#162 = CARTESIAN_POINT ( 'NONE',  ( 0.0000000000000000000, 26.11199999999999800, 5.000000000000000000 ) ) ;
#163 = PRODUCT ( '110-5211E CaF2 pl-cx 25.4 F100', '110-5211E CaF2 pl-cx 25.4 F100', '', ( #202 ) ) ;
#164 =( NAMED_UNIT ( * ) SI_UNIT ( $, .STERADIAN. ) SOLID_ANGLE_UNIT ( ) );
#165 = APPROVAL_PERSON_ORGANIZATION ( #130, #53, #20 ) ;
#166 = CARTESIAN_POINT ( 'NONE',  ( -4.416813948665776500, -4.425070006512446400, -0.6963757412691886600 ) ) ;
#167 =( NAMED_UNIT ( * ) PLANE_ANGLE_UNIT ( ) SI_UNIT ( $, .RADIAN. ) );
#168 = CARTESIAN_POINT ( 'NONE',  ( -8.219331512715211100, -12.84744760734597500, 2.660768669897422400 ) ) ;
#169 = ADVANCED_FACE ( 'NONE', ( #55 ), #99, .T. ) ;
#170 = APPLICATION_CONTEXT ( 'configuration controlled 3d designs of mechanical parts and assemblies' ) ;
#171 = VERTEX_POINT ( 'NONE', #161 ) ;
#172 = ORIENTED_EDGE ( 'NONE', *, *, #9, .T. ) ;
#173 = PRODUCT_DEFINITION_SHAPE ( 'NONE', 'NONE',  #109 ) ;
#174 = PERSON_AND_ORGANIZATION ( #34, #226 ) ;
#175 = ORIENTED_EDGE ( 'NONE', *, *, #115, .T. ) ;
#176 =( BOUNDED_SURFACE ( )  B_SPLINE_SURFACE ( 3, 3, ( 
 ( #68, #168, #36, #127 ),
 ( #52, #21, #166, #189 ),
 ( #69, #19, #188, #37 ),
 ( #209, #89, #16, #222 ) ),
 .UNSPECIFIED., .F., .F., .F. ) 
 B_SPLINE_SURFACE_WITH_KNOTS ( ( 4, 4 ),
 ( 4, 4 ),
 ( 0.0000000000000000000, 1.000000000000000000 ),
 ( 0.0000000000000000000, 1.000000000000000000 ),
 .UNSPECIFIED. ) 
 GEOMETRIC_REPRESENTATION_ITEM ( )  RATIONAL_B_SPLINE_SURFACE ( (
 ( 1.000000000000000000, 0.9919906993820788400, 0.9919906993820788400, 1.000000000000000000),
 ( 0.9677773525569969300, 0.9600261328091520600, 0.9600261328091520600, 0.9677773525569969300),
 ( 0.9677773525569969300, 0.9600261328091520600, 0.9600261328091520600, 0.9677773525569969300),
 ( 1.000000000000000000, 0.9919906993820788400, 0.9919906993820788400, 1.000000000000000000) ) ) 
 REPRESENTATION_ITEM ( '' )  SURFACE ( )  );
#177 = FACE_OUTER_BOUND ( 'NONE', #18, .T. ) ;
#178 = PRODUCT_RELATED_PRODUCT_CATEGORY ( 'detail', '', ( #163 ) ) ;
#179 = CARTESIAN_POINT ( 'NONE',  ( 8.219331512715193400, 12.84744760734598400, 2.660768669897423300 ) ) ;
#180 = CARTESIAN_POINT ( 'NONE',  ( 4.134501606058747400, -12.84744760734597300, 2.021810013811228500 ) ) ;
#181 = CLOSED_SHELL ( 'NONE', ( #91, #70, #51, #169, #39 ) ) ;
#182 = PERSON_AND_ORGANIZATION_ROLE ( 'design_supplier' ) ;
#183 = CARTESIAN_POINT ( 'NONE',  ( -7.105427357601000300E-015, 12.70000000000000600, 1.974524842877611400 ) ) ;
#184 = DIRECTION ( 'NONE',  ( 1.000000000000000000, 0.0000000000000000000, 0.0000000000000000000 ) ) ;
#185 = CIRCLE ( 'NONE', #196, 12.69999999999999900 ) ;
#186 = DIRECTION ( 'NONE',  ( 1.000000000000000000, 0.0000000000000000000, 0.0000000000000000000 ) ) ;
#187 = DIRECTION ( 'NONE',  ( 1.000000000000000000, 8.881784197001252300E-016, 0.0000000000000000000 ) ) ;
#188 = CARTESIAN_POINT ( 'NONE',  ( -4.416813948665781800, 4.425070006512458900, -0.6963757412691866700 ) ) ;
#189 = CARTESIAN_POINT ( 'NONE',  ( -1.387778780781445700E-014, -4.425070006512446400, -0.6963757412691891100 ) ) ;
#190 = APPROVAL_PERSON_ORGANIZATION ( #12, #43, #146 ) ;
#191 = ORIENTED_EDGE ( 'NONE', *, *, #201, .T. ) ;
#192 = EDGE_CURVE ( 'NONE', #149, #94, #100, .T. ) ;
#193 = COORDINATED_UNIVERSAL_TIME_OFFSET ( 2, 0, .AHEAD. ) ;
#194 = CYLINDRICAL_SURFACE ( 'NONE', #214, 12.69999999999999900 ) ;
#195 = ORIENTED_EDGE ( 'NONE', *, *, #229, .F. ) ;
#196 = AXIS2_PLACEMENT_3D ( 'NONE', #139, #232, #48 ) ;
#197 = CARTESIAN_POINT ( 'NONE',  ( 12.98639991766672200, -4.425070006512445500, 1.334987333425441800 ) ) ;
#198 = ORIENTED_EDGE ( 'NONE', *, *, #201, .F. ) ;
#199 = CARTESIAN_POINT ( 'NONE',  ( 4.134501606058745600, 12.84744760734598400, 2.021810013811228500 ) ) ;
#200 = ORIENTED_EDGE ( 'NONE', *, *, #24, .T. ) ;
#201 = EDGE_CURVE ( 'NONE', #171, #2, #152, .T. ) ;
#202 = MECHANICAL_CONTEXT ( 'NONE', #170, 'mechanical' ) ;
#203 = PERSON_AND_ORGANIZATION ( #34, #226 ) ;
#204 =( LENGTH_UNIT ( ) NAMED_UNIT ( * ) SI_UNIT ( .MILLI., .METRE. ) );
#205 = PERSON_AND_ORGANIZATION_ROLE ( 'design_owner' ) ;
#206 = VECTOR ( 'NONE', #33, 1000.000000000000000 ) ;
#207 = DIRECTION ( 'NONE',  ( -0.0000000000000000000, -0.0000000000000000000, -1.000000000000000000 ) ) ;
#208 = LINE ( 'NONE', #137, #30 ) ;
#209 = CARTESIAN_POINT ( 'NONE',  ( -12.15633982788288800, 12.84744760734598600, 3.923333146192760500 ) ) ;
#210 = LOCAL_TIME ( 17, 20, 48.00000000000000000, #193 ) ;
#211 = CC_DESIGN_PERSON_AND_ORGANIZATION_ASSIGNMENT ( #7, #140, ( #109 ) ) ;
#212 = COORDINATED_UNIVERSAL_TIME_OFFSET ( 2, 0, .AHEAD. ) ;
#213 = ORIENTED_EDGE ( 'NONE', *, *, #229, .T. ) ;
#214 = AXIS2_PLACEMENT_3D ( 'NONE', #143, #220, #186 ) ;
#215 = LOCAL_TIME ( 17, 20, 48.00000000000000000, #22 ) ;
#216 = ORIENTED_EDGE ( 'NONE', *, *, #45, .F. ) ;
#217 = APPROVAL_PERSON_ORGANIZATION ( #174, #42, #96 ) ;
#218 = SECURITY_CLASSIFICATION_LEVEL ( 'unclassified' ) ;
#219 = CC_DESIGN_DATE_AND_TIME_ASSIGNMENT ( #136, #35, ( #109 ) ) ;
#220 = DIRECTION ( 'NONE',  ( 0.0000000000000000000, 0.0000000000000000000, 1.000000000000000000 ) ) ;
#221 = DIRECTION ( 'NONE',  ( 0.0000000000000000000, 0.0000000000000000000, 1.000000000000000000 ) ) ;
#222 = CARTESIAN_POINT ( 'NONE',  ( -1.561251128379126400E-014, 12.84744760734598600, 2.021810013811224500 ) ) ;
#223 = LOCAL_TIME ( 17, 20, 48.00000000000000000, #151 ) ;
#224 = MANIFOLD_SOLID_BREP ( 'Imported1', #181 ) ;
#225 = ORIENTED_EDGE ( 'NONE', *, *, #14, .F. ) ;
#226 = ORGANIZATION ( 'UNSPECIFIED', 'UNSPECIFIED', '' ) ;
#227 = CARTESIAN_POINT ( 'NONE',  ( 12.69999999999999900, 2.442490654175340100E-015, 5.000000000000000000 ) ) ;
#228 = CARTESIAN_POINT ( 'NONE',  ( 4.996003610813200500E-016, 2.442490654175340100E-015, 1.974524842877610300 ) ) ;
#229 = EDGE_CURVE ( 'NONE', #54, #171, #233, .T. ) ;
#230 = DIRECTION ( 'NONE',  ( 1.000000000000000000, 0.0000000000000000000, 0.0000000000000000000 ) ) ;
#231 = PERSON_AND_ORGANIZATION_ROLE ( 'classification_officer' ) ;
#232 = DIRECTION ( 'NONE',  ( -0.0000000000000000000, -0.0000000000000000000, -1.000000000000000000 ) ) ;
#233 = CIRCLE ( 'NONE', #97, 12.69999999999999900 ) ;
#234 = DIRECTION ( 'NONE',  ( 0.0000000000000000000, 0.0000000000000000000, 1.000000000000000000 ) ) ;
#235 = CARTESIAN_POINT ( 'NONE',  ( -12.69999999999999900, 3.997792089092478900E-015, 5.000000000000000000 ) ) ;
ENDSEC;
END-ISO-10303-21;
