ISO-10303-21;
HEADER;
FILE_DESCRIPTION (( 'STEP AP203' ),
    '1' );
FILE_NAME ('110-5209E CaF2 pl-cx 25.4 F75.STEP',
    '2019-01-02T14:40:08',
    ( '' ),
    ( '' ),
    'SwSTEP 2.0',
    'SolidWorks 2017',
    '' );
FILE_SCHEMA (( 'CONFIG_CONTROL_DESIGN' ));
ENDSEC;

DATA;
#1 = PERSON_AND_ORGANIZATION ( #141, #90 ) ;
#2 = APPROVAL ( #56, 'UNSPECIFIED' ) ;
#3 = VERTEX_POINT ( 'NONE', #198 ) ;
#4 = CALENDAR_DATE ( 2019, 2, 1 ) ;
#5 = CARTESIAN_POINT ( 'NONE',  ( -4.029863983224307100, 12.84331110239648400, 2.749618103053564200 ) ) ;
#6 = CARTESIAN_POINT ( 'NONE',  ( -7.971484877014368900, 12.84331110239648400, 3.588324519462853700 ) ) ;
#7 = CARTESIAN_POINT ( 'NONE',  ( -4.554082653232207200, -4.546791518683940900, -0.9734203408224658700 ) ) ;
#8 = CALENDAR_DATE ( 2019, 2, 1 ) ;
#9 = CARTESIAN_POINT ( 'NONE',  ( -13.16800496342345100, 4.546791518683934700, 1.828495559190221400 ) ) ;
#10 = UNCERTAINTY_MEASURE_WITH_UNIT (LENGTH_MEASURE( 1.000000000000000100E-005 ), #91, 'distance_accuracy_value', 'NONE');
#11 = MECHANICAL_CONTEXT ( 'NONE', #153, 'mechanical' ) ;
#12 = DATE_TIME_ROLE ( 'classification_date' ) ;
#13 = EDGE_CURVE ( 'NONE', #164, #122, #169, .T. ) ;
#14 = COORDINATED_UNIVERSAL_TIME_OFFSET ( 2, 0, .AHEAD. ) ;
#15 = EDGE_CURVE ( 'NONE', #3, #85, #114, .T. ) ;
#16 = FACE_OUTER_BOUND ( 'NONE', #118, .T. ) ;
#17 = CARTESIAN_POINT ( 'NONE',  ( 3.552713678800500100E-015, 0.0000000000000000000, 31.37000000000000100 ) ) ;
#18 = PLANE ( 'NONE',  #163 ) ;
#19 = AXIS2_PLACEMENT_3D ( 'NONE', #17, #165, #86 ) ;
#20 = ADVANCED_FACE ( 'NONE', ( #211 ), #81, .T. ) ;
#21 = EDGE_LOOP ( 'NONE', ( #104, #34, #27, #80, #184 ) ) ;
#22 = ADVANCED_FACE ( 'NONE', ( #70 ), #18, .T. ) ;
#23 = PERSON_AND_ORGANIZATION ( #141, #90 ) ;
#24 = APPROVAL_ROLE ( '' ) ;
#25 = CYLINDRICAL_SURFACE ( 'NONE', #134, 12.69999999999999900 ) ;
#26 = EDGE_CURVE ( 'NONE', #122, #223, #109, .T. ) ;
#27 = ORIENTED_EDGE ( 'NONE', *, *, #26, .F. ) ;
#28 = ADVANCED_BREP_SHAPE_REPRESENTATION ( '110-5209E CaF2 pl-cx 25.4 F75', ( #222, #92 ), #158 ) ;
#29 = CARTESIAN_POINT ( 'NONE',  ( 3.552713678800500100E-015, -12.69999999999999800, 2.685737764411647800 ) ) ;
#30 = SECURITY_CLASSIFICATION ( '', '', #229 ) ;
#31 = LOCAL_TIME ( 16, 40, 8.000000000000000000, #133 ) ;
#32 = CARTESIAN_POINT ( 'NONE',  ( -9.008443250203209000, 4.546791518683933800, -0.02561208773396869400 ) ) ;
#33 = EDGE_CURVE ( 'NONE', #223, #164, #75, .T. ) ;
#34 = ORIENTED_EDGE ( 'NONE', *, *, #136, .F. ) ;
#35 = CARTESIAN_POINT ( 'NONE',  ( 4.996003610813200500E-016, 2.442490654175340100E-015, 5.700000000000000200 ) ) ;
#36 = CARTESIAN_POINT ( 'NONE',  ( -7.971484877014367100, -12.84331110239648800, 3.588324519462857700 ) ) ;
#37 = PERSON_AND_ORGANIZATION_ROLE ( 'design_owner' ) ;
#38 = DATE_TIME_ROLE ( 'creation_date' ) ;
#39 = EDGE_LOOP ( 'NONE', ( #167, #157, #200 ) ) ;
#40 = EDGE_CURVE ( 'NONE', #85, #84, #112, .T. ) ;
#41 = APPROVAL_PERSON_ORGANIZATION ( #166, #2, #156 ) ;
#42 = LINE ( 'NONE', #117, #68 ) ;
#43 = CARTESIAN_POINT ( 'NONE',  ( 4.554082653232204500, 4.546791518683933800, -0.9734203408224679800 ) ) ;
#44 = CARTESIAN_POINT ( 'NONE',  ( 13.16800496342343300, 4.546791518683934700, 1.828495559190209700 ) ) ;
#45 = CARTESIAN_POINT ( 'NONE',  ( 3.552713678800500100E-015, 12.69999999999999900, 2.685737764411647800 ) ) ;
#46 = PERSON_AND_ORGANIZATION ( #141, #90 ) ;
#47 = CC_DESIGN_DATE_AND_TIME_ASSIGNMENT ( #178, #38, ( #76 ) ) ;
#48 = ADVANCED_FACE ( 'NONE', ( #16 ), #25, .T. ) ;
#49 = CARTESIAN_POINT ( 'NONE',  ( 11.65224107106543800, -12.84331110239648600, 5.229006561554800000 ) ) ;
#50 = CLOSED_SHELL ( 'NONE', ( #20, #48, #221, #220, #22 ) ) ;
#51 = EDGE_LOOP ( 'NONE', ( #88, #97, #125 ) ) ;
#52 = CARTESIAN_POINT ( 'NONE',  ( 4.996003610813200500E-016, 2.442490654175340100E-015, 2.685737764411650000 ) ) ;
#53 = CC_DESIGN_SECURITY_CLASSIFICATION ( #30, ( #89 ) ) ;
#54 = CARTESIAN_POINT ( 'NONE',  ( -3.469446951953614200E-015, 12.84331110239648400, 2.749618103053562900 ) ) ;
#55 = LOCAL_TIME ( 16, 40, 8.000000000000000000, #100 ) ;
#56 = APPROVAL_STATUS ( 'not_yet_approved' ) ;
#57 = AXIS2_PLACEMENT_3D ( 'NONE', #82, #130, #144 ) ;
#58 = CYLINDRICAL_SURFACE ( 'NONE', #202, 12.69999999999999900 ) ;
#59 = CARTESIAN_POINT ( 'NONE',  ( 13.16800496342343200, -4.546791518683939200, 1.828495559190212100 ) ) ;
#60 = PERSON_AND_ORGANIZATION ( #141, #90 ) ;
#61 = ORIENTED_EDGE ( 'NONE', *, *, #15, .T. ) ;
#62 = DIRECTION ( 'NONE',  ( 1.000000000000000000, -8.881784197001252300E-016, 0.0000000000000000000 ) ) ;
#63 = CARTESIAN_POINT ( 'NONE',  ( 12.69999999999999900, 2.442490654175340100E-015, 5.700000000000000200 ) ) ;
#64 = CALENDAR_DATE ( 2019, 2, 1 ) ;
#65 = EDGE_CURVE ( 'NONE', #3, #164, #149, .T. ) ;
#66 = LOCAL_TIME ( 16, 40, 8.000000000000000000, #135 ) ;
#67 = DIRECTION ( 'NONE',  ( 1.000000000000000000, 0.0000000000000000000, 0.0000000000000000000 ) ) ;
#68 = VECTOR ( 'NONE', #72, 1000.000000000000000 ) ;
#69 = CARTESIAN_POINT ( 'NONE',  ( 4.996003610813200500E-016, 2.442490654175340100E-015, 2.685737764411650000 ) ) ;
#70 = FACE_OUTER_BOUND ( 'NONE', #145, .T. ) ;
#71 = AXIS2_PLACEMENT_3D ( 'NONE', #52, #206, #205 ) ;
#72 = DIRECTION ( 'NONE',  ( 0.0000000000000000000, 0.0000000000000000000, 1.000000000000000000 ) ) ;
#73 = DIRECTION ( 'NONE',  ( 1.000000000000000000, 0.0000000000000000000, 0.0000000000000000000 ) ) ;
#74 = APPROVAL_PERSON_ORGANIZATION ( #23, #224, #24 ) ;
#75 = CIRCLE ( 'NONE', #19, 31.37000000000000100 ) ;
#76 = PRODUCT_DEFINITION ( 'UNKNOWN', '', #89, #116 ) ;
#77 = APPROVAL_ROLE ( '' ) ;
#78 = CC_DESIGN_PERSON_AND_ORGANIZATION_ASSIGNMENT ( #192, #124, ( #30 ) ) ;
#79 = APPROVAL_DATE_TIME ( #121, #105 ) ;
#80 = ORIENTED_EDGE ( 'NONE', *, *, #188, .T. ) ;
#81 =( BOUNDED_SURFACE ( )  B_SPLINE_SURFACE ( 3, 3, ( 
 ( #99, #213, #231, #49 ),
 ( #98, #129, #160, #59 ),
 ( #128, #43, #230, #44 ),
 ( #215, #102, #162, #126 ) ),
 .UNSPECIFIED., .F., .F., .F. ) 
 B_SPLINE_SURFACE_WITH_KNOTS ( ( 4, 4 ),
 ( 4, 4 ),
 ( 0.0000000000000000000, 1.000000000000000000 ),
 ( 0.0000000000000000000, 1.000000000000000000 ),
 .UNSPECIFIED. ) 
 GEOMETRIC_REPRESENTATION_ITEM ( )  RATIONAL_B_SPLINE_SURFACE ( (
 ( 1.000000000000000000, 0.9854018084644069500, 0.9854018084644069500, 1.000000000000000000),
 ( 0.9415658675368490100, 0.9278207086591692100, 0.9278207086591692100, 0.9415658675368490100),
 ( 0.9415658675368490100, 0.9278207086591692100, 0.9278207086591692100, 0.9415658675368490100),
 ( 1.000000000000000000, 0.9854018084644069500, 0.9854018084644069500, 1.000000000000000000) ) ) 
 REPRESENTATION_ITEM ( '' )  SURFACE ( )  );
#82 = CARTESIAN_POINT ( 'NONE',  ( 4.996003610813200500E-016, 2.442490654175340100E-015, 2.685737764411650000 ) ) ;
#83 = DIRECTION ( 'NONE',  ( 0.0000000000000000000, 0.0000000000000000000, 1.000000000000000000 ) ) ;
#84 = VERTEX_POINT ( 'NONE', #63 ) ;
#85 = VERTEX_POINT ( 'NONE', #201 ) ;
#86 = DIRECTION ( 'NONE',  ( 0.0000000000000000000, -1.000000000000000000, 0.0000000000000000000 ) ) ;
#87 = DIRECTION ( 'NONE',  ( -0.0000000000000000000, -0.0000000000000000000, -1.000000000000000000 ) ) ;
#88 = ORIENTED_EDGE ( 'NONE', *, *, #26, .T. ) ;
#89 = PRODUCT_DEFINITION_FORMATION_WITH_SPECIFIED_SOURCE ( 'ANY', '', #159, .NOT_KNOWN. ) ;
#90 = ORGANIZATION ( 'UNSPECIFIED', 'UNSPECIFIED', '' ) ;
#91 =( LENGTH_UNIT ( ) NAMED_UNIT ( * ) SI_UNIT ( .MILLI., .METRE. ) );
#92 = AXIS2_PLACEMENT_3D ( 'NONE', #123, #106, #174 ) ;
#93 = CARTESIAN_POINT ( 'NONE',  ( -5.204170427930421300E-015, -12.84331110239648600, 2.749618103053566900 ) ) ;
#94 = CARTESIAN_POINT ( 'NONE',  ( 4.996003610813200500E-016, 2.442490654175340100E-015, 2.685737764411650000 ) ) ;
#95 = AXIS2_PLACEMENT_3D ( 'NONE', #69, #103, #171 ) ;
#96 = DIRECTION ( 'NONE',  ( 0.0000000000000000000, 0.0000000000000000000, 1.000000000000000000 ) ) ;
#97 = ORIENTED_EDGE ( 'NONE', *, *, #33, .T. ) ;
#98 = CARTESIAN_POINT ( 'NONE',  ( 3.552713678800499700E-015, -4.546791518683939200, -0.9734203408224653100 ) ) ;
#99 = CARTESIAN_POINT ( 'NONE',  ( 3.552713678800500100E-015, -12.84331110239648600, 2.749618103053567800 ) ) ;
#100 = COORDINATED_UNIVERSAL_TIME_OFFSET ( 2, 0, .AHEAD. ) ;
#101 = ORIENTED_EDGE ( 'NONE', *, *, #188, .F. ) ;
#102 = CARTESIAN_POINT ( 'NONE',  ( 4.029863983224303500, 12.84331110239648400, 2.749618103053565100 ) ) ;
#103 = DIRECTION ( 'NONE',  ( -0.0000000000000000000, -0.0000000000000000000, -1.000000000000000000 ) ) ;
#104 = ORIENTED_EDGE ( 'NONE', *, *, #15, .F. ) ;
#105 = APPROVAL ( #176, 'UNSPECIFIED' ) ;
#106 = DIRECTION ( 'NONE',  ( 0.0000000000000000000, 0.0000000000000000000, 1.000000000000000000 ) ) ;
#107 = CC_DESIGN_PERSON_AND_ORGANIZATION_ASSIGNMENT ( #1, #195, ( #76 ) ) ;
#108 = CARTESIAN_POINT ( 'NONE',  ( -4.029863983224307900, -12.84331110239648800, 2.749618103053568200 ) ) ;
#109 = CIRCLE ( 'NONE', #57, 12.69999999999999900 ) ;
#110 = CARTESIAN_POINT ( 'NONE',  ( -13.16800496342344900, -4.546791518683939200, 1.828495559190224600 ) ) ;
#111 = PERSON_AND_ORGANIZATION_ROLE ( 'design_supplier' ) ;
#112 = CIRCLE ( 'NONE', #212, 12.69999999999999900 ) ;
#113 = CC_DESIGN_PERSON_AND_ORGANIZATION_ASSIGNMENT ( #232, #111, ( #89 ) ) ;
#114 = LINE ( 'NONE', #146, #175 ) ;
#115 = AXIS2_PLACEMENT_3D ( 'NONE', #35, #209, #173 ) ;
#116 = DESIGN_CONTEXT ( 'detailed design', #189, 'design' ) ;
#117 = CARTESIAN_POINT ( 'NONE',  ( 12.69999999999999900, 2.442490654175340100E-015, 2.685737764411650000 ) ) ;
#118 = EDGE_LOOP ( 'NONE', ( #216, #61, #170, #101, #207 ) ) ;
#119 = CARTESIAN_POINT ( 'NONE',  ( -4.554082653232210700, 4.546791518683933800, -0.9734203408224689800 ) ) ;
#120 = CARTESIAN_POINT ( 'NONE',  ( -3.469446951953613800E-015, -4.546791518683939200, -0.9734203408224665300 ) ) ;
#121 = DATE_AND_TIME ( #64, #66 ) ;
#122 = VERTEX_POINT ( 'NONE', #168 ) ;
#123 = CARTESIAN_POINT ( 'NONE',  ( 0.0000000000000000000, 0.0000000000000000000, 0.0000000000000000000 ) ) ;
#124 = PERSON_AND_ORGANIZATION_ROLE ( 'classification_officer' ) ;
#125 = ORIENTED_EDGE ( 'NONE', *, *, #13, .T. ) ;
#126 = CARTESIAN_POINT ( 'NONE',  ( 11.65224107106544000, 12.84331110239648400, 5.229006561554797400 ) ) ;
#127 = CALENDAR_DATE ( 2019, 2, 1 ) ;
#128 = CARTESIAN_POINT ( 'NONE',  ( 3.552713678800499700E-015, 4.546791518683934700, -0.9734203408224678700 ) ) ;
#129 = CARTESIAN_POINT ( 'NONE',  ( 4.554082653232203600, -4.546791518683940900, -0.9734203408224655400 ) ) ;
#130 = DIRECTION ( 'NONE',  ( -0.0000000000000000000, -0.0000000000000000000, -1.000000000000000000 ) ) ;
#131 = SHAPE_DEFINITION_REPRESENTATION ( #182, #28 ) ;
#132 = DIRECTION ( 'NONE',  ( 1.000000000000000000, 0.0000000000000000000, 0.0000000000000000000 ) ) ;
#133 = COORDINATED_UNIVERSAL_TIME_OFFSET ( 2, 0, .AHEAD. ) ;
#134 = AXIS2_PLACEMENT_3D ( 'NONE', #161, #83, #67 ) ;
#135 = COORDINATED_UNIVERSAL_TIME_OFFSET ( 2, 0, .AHEAD. ) ;
#136 = EDGE_CURVE ( 'NONE', #223, #3, #151, .T. ) ;
#137 = DATE_AND_TIME ( #183, #196 ) ;
#138 =( NAMED_UNIT ( * ) PLANE_ANGLE_UNIT ( ) SI_UNIT ( $, .RADIAN. ) );
#139 = AXIS2_PLACEMENT_3D ( 'NONE', #218, #217, #62 ) ;
#140 = APPROVAL_STATUS ( 'not_yet_approved' ) ;
#141 = PERSON ( 'UNSPECIFIED', 'UNSPECIFIED', 'UNSPECIFIED', ('UNSPECIFIED'), ('UNSPECIFIED'), ('UNSPECIFIED') ) ;
#142 = PERSON_AND_ORGANIZATION ( #141, #90 ) ;
#143 = APPROVAL_DATE_TIME ( #227, #2 ) ;
#144 = DIRECTION ( 'NONE',  ( 1.000000000000000000, 0.0000000000000000000, 0.0000000000000000000 ) ) ;
#145 = EDGE_LOOP ( 'NONE', ( #214, #193 ) ) ;
#146 = CARTESIAN_POINT ( 'NONE',  ( -12.69999999999999900, 3.997792089092478900E-015, 2.685737764411650000 ) ) ;
#147 = CC_DESIGN_APPROVAL ( #105, ( #89 ) ) ;
#148 = COORDINATED_UNIVERSAL_TIME_OFFSET ( 2, 0, .AHEAD. ) ;
#149 = CIRCLE ( 'NONE', #71, 12.69999999999999900 ) ;
#150 =( NAMED_UNIT ( * ) SI_UNIT ( $, .STERADIAN. ) SOLID_ANGLE_UNIT ( ) );
#151 = CIRCLE ( 'NONE', #95, 12.69999999999999900 ) ;
#152 =( BOUNDED_SURFACE ( )  B_SPLINE_SURFACE ( 3, 3, ( 
 ( #210, #36, #108, #93 ),
 ( #110, #225, #7, #120 ),
 ( #9, #32, #119, #226 ),
 ( #191, #6, #5, #54 ) ),
 .UNSPECIFIED., .F., .F., .F. ) 
 B_SPLINE_SURFACE_WITH_KNOTS ( ( 4, 4 ),
 ( 4, 4 ),
 ( 0.0000000000000000000, 1.000000000000000000 ),
 ( 0.0000000000000000000, 1.000000000000000000 ),
 .UNSPECIFIED. ) 
 GEOMETRIC_REPRESENTATION_ITEM ( )  RATIONAL_B_SPLINE_SURFACE ( (
 ( 1.000000000000000000, 0.9854018084644069500, 0.9854018084644069500, 1.000000000000000000),
 ( 0.9415658675368490100, 0.9278207086591692100, 0.9278207086591692100, 0.9415658675368490100),
 ( 0.9415658675368490100, 0.9278207086591692100, 0.9278207086591692100, 0.9415658675368490100),
 ( 1.000000000000000000, 0.9854018084644069500, 0.9854018084644069500, 1.000000000000000000) ) ) 
 REPRESENTATION_ITEM ( '' )  SURFACE ( )  );
#153 = APPLICATION_CONTEXT ( 'configuration controlled 3d designs of mechanical parts and assemblies' ) ;
#154 = APPLICATION_PROTOCOL_DEFINITION ( 'international standard', 'config_control_design', 1994, #189 ) ;
#155 = CC_DESIGN_PERSON_AND_ORGANIZATION_ASSIGNMENT ( #142, #194, ( #89 ) ) ;
#156 = APPROVAL_ROLE ( '' ) ;
#157 = ORIENTED_EDGE ( 'NONE', *, *, #136, .T. ) ;
#158 =( GEOMETRIC_REPRESENTATION_CONTEXT ( 3 ) GLOBAL_UNCERTAINTY_ASSIGNED_CONTEXT ( ( #10 ) ) GLOBAL_UNIT_ASSIGNED_CONTEXT ( ( #91, #138, #150 ) ) REPRESENTATION_CONTEXT ( 'NONE', 'WORKASPACE' ) );
#159 = PRODUCT ( '110-5209E CaF2 pl-cx 25.4 F75', '110-5209E CaF2 pl-cx 25.4 F75', '', ( #11 ) ) ;
#160 = CARTESIAN_POINT ( 'NONE',  ( 9.008443250203193000, -4.546791518683940900, -0.02561208773397216300 ) ) ;
#161 = CARTESIAN_POINT ( 'NONE',  ( 4.996003610813200500E-016, 2.442490654175340100E-015, 2.685737764411650000 ) ) ;
#162 = CARTESIAN_POINT ( 'NONE',  ( 7.971484877014358300, 12.84331110239648400, 3.588324519462848400 ) ) ;
#163 = AXIS2_PLACEMENT_3D ( 'NONE', #177, #180, #219 ) ;
#164 = VERTEX_POINT ( 'NONE', #45 ) ;
#165 = DIRECTION ( 'NONE',  ( 1.000000000000000000, 0.0000000000000000000, 0.0000000000000000000 ) ) ;
#166 = PERSON_AND_ORGANIZATION ( #141, #90 ) ;
#167 = ORIENTED_EDGE ( 'NONE', *, *, #33, .F. ) ;
#168 = CARTESIAN_POINT ( 'NONE',  ( 12.69999999999999900, 2.442490654175340100E-015, 2.685737764411650000 ) ) ;
#169 = CIRCLE ( 'NONE', #139, 12.69999999999999900 ) ;
#170 = ORIENTED_EDGE ( 'NONE', *, *, #40, .T. ) ;
#171 = DIRECTION ( 'NONE',  ( 1.000000000000000000, 0.0000000000000000000, 0.0000000000000000000 ) ) ;
#172 = FACE_OUTER_BOUND ( 'NONE', #39, .T. ) ;
#173 = DIRECTION ( 'NONE',  ( 1.000000000000000000, 0.0000000000000000000, 0.0000000000000000000 ) ) ;
#174 = DIRECTION ( 'NONE',  ( 1.000000000000000000, 0.0000000000000000000, 0.0000000000000000000 ) ) ;
#175 = VECTOR ( 'NONE', #96, 1000.000000000000000 ) ;
#176 = APPROVAL_STATUS ( 'not_yet_approved' ) ;
#177 = CARTESIAN_POINT ( 'NONE',  ( 0.0000000000000000000, 26.11199999999999800, 5.700000000000000200 ) ) ;
#178 = DATE_AND_TIME ( #127, #55 ) ;
#179 = CIRCLE ( 'NONE', #115, 12.69999999999999900 ) ;
#180 = DIRECTION ( 'NONE',  ( 0.0000000000000000000, 0.0000000000000000000, 1.000000000000000000 ) ) ;
#181 = CC_DESIGN_DATE_AND_TIME_ASSIGNMENT ( #137, #12, ( #30 ) ) ;
#182 = PRODUCT_DEFINITION_SHAPE ( 'NONE', 'NONE',  #76 ) ;
#183 = CALENDAR_DATE ( 2019, 2, 1 ) ;
#184 = ORIENTED_EDGE ( 'NONE', *, *, #197, .T. ) ;
#185 = CARTESIAN_POINT ( 'NONE',  ( 4.996003610813200500E-016, 2.442490654175340100E-015, 5.700000000000000200 ) ) ;
#186 = FACE_OUTER_BOUND ( 'NONE', #21, .T. ) ;
#187 = CC_DESIGN_APPROVAL ( #2, ( #76 ) ) ;
#188 = EDGE_CURVE ( 'NONE', #122, #84, #42, .T. ) ;
#189 = APPLICATION_CONTEXT ( 'configuration controlled 3d designs of mechanical parts and assemblies' ) ;
#190 = CC_DESIGN_PERSON_AND_ORGANIZATION_ASSIGNMENT ( #46, #37, ( #159 ) ) ;
#191 = CARTESIAN_POINT ( 'NONE',  ( -11.65224107106545200, 12.84331110239648400, 5.229006561554807100 ) ) ;
#192 = PERSON_AND_ORGANIZATION ( #141, #90 ) ;
#193 = ORIENTED_EDGE ( 'NONE', *, *, #40, .F. ) ;
#194 = PERSON_AND_ORGANIZATION_ROLE ( 'creator' ) ;
#195 = PERSON_AND_ORGANIZATION_ROLE ( 'creator' ) ;
#196 = LOCAL_TIME ( 16, 40, 8.000000000000000000, #148 ) ;
#197 = EDGE_CURVE ( 'NONE', #84, #85, #179, .T. ) ;
#198 = CARTESIAN_POINT ( 'NONE',  ( -12.69999999999999900, 3.997792089092478900E-015, 2.685737764411650000 ) ) ;
#199 = DATE_AND_TIME ( #8, #204 ) ;
#200 = ORIENTED_EDGE ( 'NONE', *, *, #65, .T. ) ;
#201 = CARTESIAN_POINT ( 'NONE',  ( -12.69999999999999900, 3.997792089092478900E-015, 5.700000000000000200 ) ) ;
#202 = AXIS2_PLACEMENT_3D ( 'NONE', #94, #208, #73 ) ;
#203 = APPROVAL_DATE_TIME ( #199, #224 ) ;
#204 = LOCAL_TIME ( 16, 40, 8.000000000000000000, #14 ) ;
#205 = DIRECTION ( 'NONE',  ( 1.000000000000000000, 0.0000000000000000000, 0.0000000000000000000 ) ) ;
#206 = DIRECTION ( 'NONE',  ( -0.0000000000000000000, -0.0000000000000000000, -1.000000000000000000 ) ) ;
#207 = ORIENTED_EDGE ( 'NONE', *, *, #13, .F. ) ;
#208 = DIRECTION ( 'NONE',  ( 0.0000000000000000000, 0.0000000000000000000, 1.000000000000000000 ) ) ;
#209 = DIRECTION ( 'NONE',  ( -0.0000000000000000000, -0.0000000000000000000, -1.000000000000000000 ) ) ;
#210 = CARTESIAN_POINT ( 'NONE',  ( -11.65224107106545000, -12.84331110239648600, 5.229006561554810700 ) ) ;
#211 = FACE_OUTER_BOUND ( 'NONE', #51, .T. ) ;
#212 = AXIS2_PLACEMENT_3D ( 'NONE', #185, #87, #132 ) ;
#213 = CARTESIAN_POINT ( 'NONE',  ( 4.029863983224303500, -12.84331110239648800, 2.749618103053567800 ) ) ;
#214 = ORIENTED_EDGE ( 'NONE', *, *, #197, .F. ) ;
#215 = CARTESIAN_POINT ( 'NONE',  ( 3.552713678800500100E-015, 12.84331110239648400, 2.749618103053564700 ) ) ;
#216 = ORIENTED_EDGE ( 'NONE', *, *, #65, .F. ) ;
#217 = DIRECTION ( 'NONE',  ( -0.0000000000000000000, -0.0000000000000000000, -1.000000000000000000 ) ) ;
#218 = CARTESIAN_POINT ( 'NONE',  ( 4.996003610813200500E-016, 2.442490654175340100E-015, 2.685737764411650000 ) ) ;
#219 = DIRECTION ( 'NONE',  ( 1.000000000000000000, 0.0000000000000000000, -0.0000000000000000000 ) ) ;
#220 = ADVANCED_FACE ( 'NONE', ( #186 ), #58, .T. ) ;
#221 = ADVANCED_FACE ( 'NONE', ( #172 ), #152, .T. ) ;
#222 = MANIFOLD_SOLID_BREP ( 'Imported1', #50 ) ;
#223 = VERTEX_POINT ( 'NONE', #29 ) ;
#224 = APPROVAL ( #140, 'UNSPECIFIED' ) ;
#225 = CARTESIAN_POINT ( 'NONE',  ( -9.008443250203205500, -4.546791518683940900, -0.02561208773396543900 ) ) ;
#226 = CARTESIAN_POINT ( 'NONE',  ( -5.204170427930420500E-015, 4.546791518683934700, -0.9734203408224699800 ) ) ;
#227 = DATE_AND_TIME ( #4, #31 ) ;
#228 = APPLICATION_PROTOCOL_DEFINITION ( 'international standard', 'config_control_design', 1994, #153 ) ;
#229 = SECURITY_CLASSIFICATION_LEVEL ( 'unclassified' ) ;
#230 = CARTESIAN_POINT ( 'NONE',  ( 9.008443250203198400, 4.546791518683933800, -0.02561208773397498400 ) ) ;
#231 = CARTESIAN_POINT ( 'NONE',  ( 7.971484877014356500, -12.84331110239648800, 3.588324519462850600 ) ) ;
#232 = PERSON_AND_ORGANIZATION ( #141, #90 ) ;
#233 = CC_DESIGN_APPROVAL ( #224, ( #30 ) ) ;
#234 = APPROVAL_PERSON_ORGANIZATION ( #60, #105, #77 ) ;
#235 = PRODUCT_RELATED_PRODUCT_CATEGORY ( 'detail', '', ( #159 ) ) ;
ENDSEC;
END-ISO-10303-21;
