ISO-10303-21;
HEADER;
FILE_DESCRIPTION (( 'STEP AP203' ),
    '1' );
FILE_NAME ('110-5205E CaF2 pl-cx 25.4 F50.STEP',
    '2019-01-02T14:04:34',
    ( '' ),
    ( '' ),
    'SwSTEP 2.0',
    'SolidWorks 2017',
    '' );
FILE_SCHEMA (( 'CONFIG_CONTROL_DESIGN' ));
ENDSEC;

DATA;
#1 = ORIENTED_EDGE ( 'NONE', *, *, #128, .T. ) ;
#2 = VERTEX_POINT ( 'NONE', #40 ) ;
#3 = ADVANCED_FACE ( 'NONE', ( #174 ), #141, .T. ) ;
#4 = VERTEX_POINT ( 'NONE', #181 ) ;
#5 = DIRECTION ( 'NONE',  ( 0.0000000000000000000, 0.0000000000000000000, 1.000000000000000000 ) ) ;
#6 = EDGE_CURVE ( 'NONE', #179, #154, #92, .T. ) ;
#7 = CARTESIAN_POINT ( 'NONE',  ( -13.16800496342344900, -4.546791518683939200, 1.828495559190224600 ) ) ;
#8 = SECURITY_CLASSIFICATION ( '', '', #104 ) ;
#9 = CARTESIAN_POINT ( 'NONE',  ( 13.16800496342343300, 4.546791518683934700, 1.828495559190209700 ) ) ;
#10 = ORIENTED_EDGE ( 'NONE', *, *, #49, .T. ) ;
#11 = COORDINATED_UNIVERSAL_TIME_OFFSET ( 2, 0, .AHEAD. ) ;
#12 = APPROVAL_STATUS ( 'not_yet_approved' ) ;
#13 = DIRECTION ( 'NONE',  ( 1.000000000000000000, 0.0000000000000000000, 0.0000000000000000000 ) ) ;
#14 = MANIFOLD_SOLID_BREP ( 'Imported1', #137 ) ;
#15 = ORIENTED_EDGE ( 'NONE', *, *, #175, .F. ) ;
#16 = PERSON_AND_ORGANIZATION ( #223, #145 ) ;
#17 = ORIENTED_EDGE ( 'NONE', *, *, #49, .F. ) ;
#18 = DIRECTION ( 'NONE',  ( 1.000000000000000000, 0.0000000000000000000, 0.0000000000000000000 ) ) ;
#19 = CARTESIAN_POINT ( 'NONE',  ( 4.996003610813200500E-016, 2.442490654175340100E-015, 2.685737764411650000 ) ) ;
#20 =( BOUNDED_SURFACE ( )  B_SPLINE_SURFACE ( 3, 3, ( 
 ( #110, #199, #146, #96 ),
 ( #7, #60, #43, #163 ),
 ( #63, #130, #224, #101 ),
 ( #136, #158, #98, #24 ) ),
 .UNSPECIFIED., .F., .F., .F. ) 
 B_SPLINE_SURFACE_WITH_KNOTS ( ( 4, 4 ),
 ( 4, 4 ),
 ( 0.0000000000000000000, 1.000000000000000000 ),
 ( 0.0000000000000000000, 1.000000000000000000 ),
 .UNSPECIFIED. ) 
 GEOMETRIC_REPRESENTATION_ITEM ( )  RATIONAL_B_SPLINE_SURFACE ( (
 ( 1.000000000000000000, 0.9854018084644069500, 0.9854018084644069500, 1.000000000000000000),
 ( 0.9415658675368490100, 0.9278207086591692100, 0.9278207086591692100, 0.9415658675368490100),
 ( 0.9415658675368490100, 0.9278207086591692100, 0.9278207086591692100, 0.9415658675368490100),
 ( 1.000000000000000000, 0.9854018084644069500, 0.9854018084644069500, 1.000000000000000000) ) ) 
 REPRESENTATION_ITEM ( '' )  SURFACE ( )  );
#21 = COORDINATED_UNIVERSAL_TIME_OFFSET ( 2, 0, .AHEAD. ) ;
#22 = CARTESIAN_POINT ( 'NONE',  ( -12.69999999999999900, 3.997792089092478900E-015, 5.700000000000000200 ) ) ;
#23 = CARTESIAN_POINT ( 'NONE',  ( 3.552713678800499700E-015, -4.546791518683939200, -0.9734203408224653100 ) ) ;
#24 = CARTESIAN_POINT ( 'NONE',  ( -3.469446951953614200E-015, 12.84331110239648400, 2.749618103053562900 ) ) ;
#25 = ORIENTED_EDGE ( 'NONE', *, *, #69, .T. ) ;
#26 = DATE_AND_TIME ( #192, #71 ) ;
#27 = CARTESIAN_POINT ( 'NONE',  ( 4.029863983224303500, 12.84331110239648400, 2.749618103053565100 ) ) ;
#28 = AXIS2_PLACEMENT_3D ( 'NONE', #139, #168, #189 ) ;
#29 = PERSON_AND_ORGANIZATION_ROLE ( 'design_supplier' ) ;
#30 = CIRCLE ( 'NONE', #126, 12.69999999999999900 ) ;
#31 = AXIS2_PLACEMENT_3D ( 'NONE', #94, #57, #93 ) ;
#32 = FACE_OUTER_BOUND ( 'NONE', #202, .T. ) ;
#33 = LOCAL_TIME ( 16, 4, 34.00000000000000000, #234 ) ;
#34 = CC_DESIGN_DATE_AND_TIME_ASSIGNMENT ( #203, #229, ( #8 ) ) ;
#35 = ORIENTED_EDGE ( 'NONE', *, *, #175, .T. ) ;
#36 = CARTESIAN_POINT ( 'NONE',  ( 3.552713678800500100E-015, -12.69999999999999800, 2.685737764411647800 ) ) ;
#37 = CARTESIAN_POINT ( 'NONE',  ( 0.0000000000000000000, 26.11199999999999800, 5.700000000000000200 ) ) ;
#38 =( BOUNDED_SURFACE ( )  B_SPLINE_SURFACE ( 3, 3, ( 
 ( #193, #184, #77, #219 ),
 ( #23, #147, #81, #114 ),
 ( #80, #129, #183, #9 ),
 ( #62, #27, #100, #148 ) ),
 .UNSPECIFIED., .F., .F., .F. ) 
 B_SPLINE_SURFACE_WITH_KNOTS ( ( 4, 4 ),
 ( 4, 4 ),
 ( 0.0000000000000000000, 1.000000000000000000 ),
 ( 0.0000000000000000000, 1.000000000000000000 ),
 .UNSPECIFIED. ) 
 GEOMETRIC_REPRESENTATION_ITEM ( )  RATIONAL_B_SPLINE_SURFACE ( (
 ( 1.000000000000000000, 0.9854018084644069500, 0.9854018084644069500, 1.000000000000000000),
 ( 0.9415658675368490100, 0.9278207086591692100, 0.9278207086591692100, 0.9415658675368490100),
 ( 0.9415658675368490100, 0.9278207086591692100, 0.9278207086591692100, 0.9415658675368490100),
 ( 1.000000000000000000, 0.9854018084644069500, 0.9854018084644069500, 1.000000000000000000) ) ) 
 REPRESENTATION_ITEM ( '' )  SURFACE ( )  );
#39 = VERTEX_POINT ( 'NONE', #195 ) ;
#40 = CARTESIAN_POINT ( 'NONE',  ( 12.69999999999999900, 2.442490654175340100E-015, 5.700000000000000200 ) ) ;
#41 = CARTESIAN_POINT ( 'NONE',  ( -12.69999999999999900, 3.997792089092478900E-015, 2.685737764411650000 ) ) ;
#42 = SHAPE_DEFINITION_REPRESENTATION ( #200, #122 ) ;
#43 = CARTESIAN_POINT ( 'NONE',  ( -4.554082653232207200, -4.546791518683940900, -0.9734203408224658700 ) ) ;
#44 = AXIS2_PLACEMENT_3D ( 'NONE', #73, #215, #218 ) ;
#45 = CARTESIAN_POINT ( 'NONE',  ( 4.996003610813200500E-016, 2.442490654175340100E-015, 2.685737764411650000 ) ) ;
#46 = DESIGN_CONTEXT ( 'detailed design', #68, 'design' ) ;
#47 = CC_DESIGN_PERSON_AND_ORGANIZATION_ASSIGNMENT ( #74, #29, ( #161 ) ) ;
#48 = DIRECTION ( 'NONE',  ( 1.000000000000000000, 0.0000000000000000000, 0.0000000000000000000 ) ) ;
#49 = EDGE_CURVE ( 'NONE', #53, #39, #85, .T. ) ;
#50 = PERSON_AND_ORGANIZATION_ROLE ( 'creator' ) ;
#51 =( NAMED_UNIT ( * ) PLANE_ANGLE_UNIT ( ) SI_UNIT ( $, .RADIAN. ) );
#52 = CARTESIAN_POINT ( 'NONE',  ( 0.0000000000000000000, 0.0000000000000000000, 0.0000000000000000000 ) ) ;
#53 = VERTEX_POINT ( 'NONE', #36 ) ;
#54 = APPROVAL ( #164, 'UNSPECIFIED' ) ;
#55 = ORIENTED_EDGE ( 'NONE', *, *, #231, .T. ) ;
#56 = CALENDAR_DATE ( 2019, 2, 1 ) ;
#57 = DIRECTION ( 'NONE',  ( 1.000000000000000000, 0.0000000000000000000, 0.0000000000000000000 ) ) ;
#58 = EDGE_CURVE ( 'NONE', #53, #179, #182, .T. ) ;
#59 = DIRECTION ( 'NONE',  ( 0.0000000000000000000, 0.0000000000000000000, 1.000000000000000000 ) ) ;
#60 = CARTESIAN_POINT ( 'NONE',  ( -9.008443250203205500, -4.546791518683940900, -0.02561208773396543900 ) ) ;
#61 = DATE_AND_TIME ( #56, #211 ) ;
#62 = CARTESIAN_POINT ( 'NONE',  ( 3.552713678800500100E-015, 12.84331110239648400, 2.749618103053564700 ) ) ;
#63 = CARTESIAN_POINT ( 'NONE',  ( -13.16800496342345100, 4.546791518683934700, 1.828495559190221400 ) ) ;
#64 = ORIENTED_EDGE ( 'NONE', *, *, #212, .T. ) ;
#65 = DIRECTION ( 'NONE',  ( -0.0000000000000000000, -0.0000000000000000000, -1.000000000000000000 ) ) ;
#66 = APPROVAL ( #12, 'UNSPECIFIED' ) ;
#67 = DIRECTION ( 'NONE',  ( 1.000000000000000000, 0.0000000000000000000, 0.0000000000000000000 ) ) ;
#68 = APPLICATION_CONTEXT ( 'configuration controlled 3d designs of mechanical parts and assemblies' ) ;
#69 = EDGE_CURVE ( 'NONE', #39, #4, #79, .T. ) ;
#70 = ORIENTED_EDGE ( 'NONE', *, *, #58, .T. ) ;
#71 = LOCAL_TIME ( 16, 4, 34.00000000000000000, #155 ) ;
#72 = DIRECTION ( 'NONE',  ( 1.000000000000000000, -8.881784197001252300E-016, 0.0000000000000000000 ) ) ;
#73 = CARTESIAN_POINT ( 'NONE',  ( 4.996003610813200500E-016, 2.442490654175340100E-015, 2.685737764411650000 ) ) ;
#74 = PERSON_AND_ORGANIZATION ( #223, #145 ) ;
#75 = ADVANCED_FACE ( 'NONE', ( #207 ), #124, .T. ) ;
#76 = LINE ( 'NONE', #156, #221 ) ;
#77 = CARTESIAN_POINT ( 'NONE',  ( 7.971484877014356500, -12.84331110239648800, 3.588324519462850600 ) ) ;
#78 = AXIS2_PLACEMENT_3D ( 'NONE', #19, #59, #18 ) ;
#79 = CIRCLE ( 'NONE', #171, 12.69999999999999900 ) ;
#80 = CARTESIAN_POINT ( 'NONE',  ( 3.552713678800499700E-015, 4.546791518683934700, -0.9734203408224678700 ) ) ;
#81 = CARTESIAN_POINT ( 'NONE',  ( 9.008443250203193000, -4.546791518683940900, -0.02561208773397216300 ) ) ;
#82 = AXIS2_PLACEMENT_3D ( 'NONE', #45, #160, #135 ) ;
#83 = CARTESIAN_POINT ( 'NONE',  ( 4.996003610813200500E-016, 2.442490654175340100E-015, 5.700000000000000200 ) ) ;
#84 = DIRECTION ( 'NONE',  ( -0.0000000000000000000, -0.0000000000000000000, -1.000000000000000000 ) ) ;
#85 = CIRCLE ( 'NONE', #31, 31.37000000000000100 ) ;
#86 = PERSON_AND_ORGANIZATION_ROLE ( 'design_owner' ) ;
#87 = APPROVAL_ROLE ( '' ) ;
#88 = CIRCLE ( 'NONE', #151, 12.69999999999999900 ) ;
#89 = APPROVAL_DATE_TIME ( #26, #66 ) ;
#90 = ORIENTED_EDGE ( 'NONE', *, *, #231, .F. ) ;
#91 = UNCERTAINTY_MEASURE_WITH_UNIT (LENGTH_MEASURE( 1.000000000000000100E-005 ), #103, 'distance_accuracy_value', 'NONE');
#92 = LINE ( 'NONE', #213, #194 ) ;
#93 = DIRECTION ( 'NONE',  ( 0.0000000000000000000, -1.000000000000000000, 0.0000000000000000000 ) ) ;
#94 = CARTESIAN_POINT ( 'NONE',  ( 3.552713678800500100E-015, 0.0000000000000000000, 31.37000000000000100 ) ) ;
#95 = ADVANCED_FACE ( 'NONE', ( #217 ), #20, .T. ) ;
#96 = CARTESIAN_POINT ( 'NONE',  ( -5.204170427930421300E-015, -12.84331110239648600, 2.749618103053566900 ) ) ;
#97 = APPROVAL_PERSON_ORGANIZATION ( #188, #169, #87 ) ;
#98 = CARTESIAN_POINT ( 'NONE',  ( -4.029863983224307100, 12.84331110239648400, 2.749618103053564200 ) ) ;
#99 =( GEOMETRIC_REPRESENTATION_CONTEXT ( 3 ) GLOBAL_UNCERTAINTY_ASSIGNED_CONTEXT ( ( #91 ) ) GLOBAL_UNIT_ASSIGNED_CONTEXT ( ( #103, #51, #205 ) ) REPRESENTATION_CONTEXT ( 'NONE', 'WORKASPACE' ) );
#100 = CARTESIAN_POINT ( 'NONE',  ( 7.971484877014358300, 12.84331110239648400, 3.588324519462848400 ) ) ;
#101 = CARTESIAN_POINT ( 'NONE',  ( -5.204170427930420500E-015, 4.546791518683934700, -0.9734203408224699800 ) ) ;
#102 = DIRECTION ( 'NONE',  ( 1.000000000000000000, 0.0000000000000000000, 0.0000000000000000000 ) ) ;
#103 =( LENGTH_UNIT ( ) NAMED_UNIT ( * ) SI_UNIT ( .MILLI., .METRE. ) );
#104 = SECURITY_CLASSIFICATION_LEVEL ( 'unclassified' ) ;
#105 = DATE_TIME_ROLE ( 'creation_date' ) ;
#106 = CALENDAR_DATE ( 2019, 2, 1 ) ;
#107 = AXIS2_PLACEMENT_3D ( 'NONE', #52, #118, #67 ) ;
#108 = EDGE_LOOP ( 'NONE', ( #55, #10, #25 ) ) ;
#109 = DIRECTION ( 'NONE',  ( 1.000000000000000000, 0.0000000000000000000, -0.0000000000000000000 ) ) ;
#110 = CARTESIAN_POINT ( 'NONE',  ( -11.65224107106545000, -12.84331110239648600, 5.229006561554810700 ) ) ;
#111 = ADVANCED_FACE ( 'NONE', ( #177 ), #38, .T. ) ;
#112 = ORIENTED_EDGE ( 'NONE', *, *, #159, .F. ) ;
#113 = PERSON_AND_ORGANIZATION ( #223, #145 ) ;
#114 = CARTESIAN_POINT ( 'NONE',  ( 13.16800496342343200, -4.546791518683939200, 1.828495559190212100 ) ) ;
#115 = MECHANICAL_CONTEXT ( 'NONE', #166, 'mechanical' ) ;
#116 = CARTESIAN_POINT ( 'NONE',  ( 4.996003610813200500E-016, 2.442490654175340100E-015, 2.685737764411650000 ) ) ;
#117 = EDGE_LOOP ( 'NONE', ( #17, #70, #35 ) ) ;
#118 = DIRECTION ( 'NONE',  ( 0.0000000000000000000, 0.0000000000000000000, 1.000000000000000000 ) ) ;
#119 = APPROVAL_ROLE ( '' ) ;
#120 = ORIENTED_EDGE ( 'NONE', *, *, #58, .F. ) ;
#121 = CALENDAR_DATE ( 2019, 2, 1 ) ;
#122 = ADVANCED_BREP_SHAPE_REPRESENTATION ( '110-5205E CaF2 pl-cx 25.4 F50', ( #14, #107 ), #99 ) ;
#123 = CC_DESIGN_APPROVAL ( #66, ( #8 ) ) ;
#124 = PLANE ( 'NONE',  #173 ) ;
#125 = DATE_AND_TIME ( #176, #150 ) ;
#126 = AXIS2_PLACEMENT_3D ( 'NONE', #83, #84, #102 ) ;
#127 = CARTESIAN_POINT ( 'NONE',  ( 4.996003610813200500E-016, 2.442490654175340100E-015, 2.685737764411650000 ) ) ;
#128 = EDGE_CURVE ( 'NONE', #4, #2, #76, .T. ) ;
#129 = CARTESIAN_POINT ( 'NONE',  ( 4.554082653232204500, 4.546791518683933800, -0.9734203408224679800 ) ) ;
#130 = CARTESIAN_POINT ( 'NONE',  ( -9.008443250203209000, 4.546791518683933800, -0.02561208773396869400 ) ) ;
#131 = ORIENTED_EDGE ( 'NONE', *, *, #69, .F. ) ;
#132 = APPROVAL_PERSON_ORGANIZATION ( #208, #66, #119 ) ;
#133 = CC_DESIGN_PERSON_AND_ORGANIZATION_ASSIGNMENT ( #222, #50, ( #186 ) ) ;
#134 = ADVANCED_FACE ( 'NONE', ( #32 ), #170, .T. ) ;
#135 = DIRECTION ( 'NONE',  ( 1.000000000000000000, 0.0000000000000000000, 0.0000000000000000000 ) ) ;
#136 = CARTESIAN_POINT ( 'NONE',  ( -11.65224107106545200, 12.84331110239648400, 5.229006561554807100 ) ) ;
#137 = CLOSED_SHELL ( 'NONE', ( #111, #3, #95, #134, #75 ) ) ;
#138 = PERSON_AND_ORGANIZATION_ROLE ( 'creator' ) ;
#139 = CARTESIAN_POINT ( 'NONE',  ( 4.996003610813200500E-016, 2.442490654175340100E-015, 5.700000000000000200 ) ) ;
#140 = APPLICATION_PROTOCOL_DEFINITION ( 'international standard', 'config_control_design', 1994, #68 ) ;
#141 = CYLINDRICAL_SURFACE ( 'NONE', #78, 12.69999999999999900 ) ;
#142 = AXIS2_PLACEMENT_3D ( 'NONE', #204, #65, #48 ) ;
#143 = ORIENTED_EDGE ( 'NONE', *, *, #6, .T. ) ;
#144 = ORIENTED_EDGE ( 'NONE', *, *, #128, .F. ) ;
#145 = ORGANIZATION ( 'UNSPECIFIED', 'UNSPECIFIED', '' ) ;
#146 = CARTESIAN_POINT ( 'NONE',  ( -4.029863983224307900, -12.84331110239648800, 2.749618103053568200 ) ) ;
#147 = CARTESIAN_POINT ( 'NONE',  ( 4.554082653232203600, -4.546791518683940900, -0.9734203408224655400 ) ) ;
#148 = CARTESIAN_POINT ( 'NONE',  ( 11.65224107106544000, 12.84331110239648400, 5.229006561554797400 ) ) ;
#149 = APPLICATION_PROTOCOL_DEFINITION ( 'international standard', 'config_control_design', 1994, #166 ) ;
#150 = LOCAL_TIME ( 16, 4, 34.00000000000000000, #21 ) ;
#151 = AXIS2_PLACEMENT_3D ( 'NONE', #116, #206, #13 ) ;
#152 = ORIENTED_EDGE ( 'NONE', *, *, #159, .T. ) ;
#153 = APPROVAL_PERSON_ORGANIZATION ( #191, #54, #228 ) ;
#154 = VERTEX_POINT ( 'NONE', #22 ) ;
#155 = COORDINATED_UNIVERSAL_TIME_OFFSET ( 2, 0, .AHEAD. ) ;
#156 = CARTESIAN_POINT ( 'NONE',  ( 12.69999999999999900, 2.442490654175340100E-015, 2.685737764411650000 ) ) ;
#157 = CC_DESIGN_PERSON_AND_ORGANIZATION_ASSIGNMENT ( #113, #138, ( #161 ) ) ;
#158 = CARTESIAN_POINT ( 'NONE',  ( -7.971484877014368900, 12.84331110239648400, 3.588324519462853700 ) ) ;
#159 = EDGE_CURVE ( 'NONE', #2, #154, #165, .T. ) ;
#160 = DIRECTION ( 'NONE',  ( 0.0000000000000000000, 0.0000000000000000000, 1.000000000000000000 ) ) ;
#161 = PRODUCT_DEFINITION_FORMATION_WITH_SPECIFIED_SOURCE ( 'ANY', '', #226, .NOT_KNOWN. ) ;
#162 = APPROVAL_DATE_TIME ( #61, #54 ) ;
#163 = CARTESIAN_POINT ( 'NONE',  ( -3.469446951953613800E-015, -4.546791518683939200, -0.9734203408224665300 ) ) ;
#164 = APPROVAL_STATUS ( 'not_yet_approved' ) ;
#165 = CIRCLE ( 'NONE', #28, 12.69999999999999900 ) ;
#166 = APPLICATION_CONTEXT ( 'configuration controlled 3d designs of mechanical parts and assemblies' ) ;
#167 = COORDINATED_UNIVERSAL_TIME_OFFSET ( 2, 0, .AHEAD. ) ;
#168 = DIRECTION ( 'NONE',  ( -0.0000000000000000000, -0.0000000000000000000, -1.000000000000000000 ) ) ;
#169 = APPROVAL ( #187, 'UNSPECIFIED' ) ;
#170 = CYLINDRICAL_SURFACE ( 'NONE', #82, 12.69999999999999900 ) ;
#171 = AXIS2_PLACEMENT_3D ( 'NONE', #127, #180, #72 ) ;
#172 = DATE_AND_TIME ( #106, #33 ) ;
#173 = AXIS2_PLACEMENT_3D ( 'NONE', #37, #216, #109 ) ;
#174 = FACE_OUTER_BOUND ( 'NONE', #233, .T. ) ;
#175 = EDGE_CURVE ( 'NONE', #179, #39, #210, .T. ) ;
#176 = CALENDAR_DATE ( 2019, 2, 1 ) ;
#177 = FACE_OUTER_BOUND ( 'NONE', #108, .T. ) ;
#178 = CC_DESIGN_APPROVAL ( #54, ( #161 ) ) ;
#179 = VERTEX_POINT ( 'NONE', #41 ) ;
#180 = DIRECTION ( 'NONE',  ( -0.0000000000000000000, -0.0000000000000000000, -1.000000000000000000 ) ) ;
#181 = CARTESIAN_POINT ( 'NONE',  ( 12.69999999999999900, 2.442490654175340100E-015, 2.685737764411650000 ) ) ;
#182 = CIRCLE ( 'NONE', #44, 12.69999999999999900 ) ;
#183 = CARTESIAN_POINT ( 'NONE',  ( 9.008443250203198400, 4.546791518683933800, -0.02561208773397498400 ) ) ;
#184 = CARTESIAN_POINT ( 'NONE',  ( 4.029863983224303500, -12.84331110239648800, 2.749618103053567800 ) ) ;
#185 = ORIENTED_EDGE ( 'NONE', *, *, #212, .F. ) ;
#186 = PRODUCT_DEFINITION ( 'UNKNOWN', '', #161, #46 ) ;
#187 = APPROVAL_STATUS ( 'not_yet_approved' ) ;
#188 = PERSON_AND_ORGANIZATION ( #223, #145 ) ;
#189 = DIRECTION ( 'NONE',  ( 1.000000000000000000, 0.0000000000000000000, 0.0000000000000000000 ) ) ;
#190 = ORIENTED_EDGE ( 'NONE', *, *, #6, .F. ) ;
#191 = PERSON_AND_ORGANIZATION ( #223, #145 ) ;
#192 = CALENDAR_DATE ( 2019, 2, 1 ) ;
#193 = CARTESIAN_POINT ( 'NONE',  ( 3.552713678800500100E-015, -12.84331110239648600, 2.749618103053567800 ) ) ;
#194 = VECTOR ( 'NONE', #5, 1000.000000000000000 ) ;
#195 = CARTESIAN_POINT ( 'NONE',  ( 3.552713678800500100E-015, 12.69999999999999900, 2.685737764411647800 ) ) ;
#196 = LOCAL_TIME ( 16, 4, 34.00000000000000000, #11 ) ;
#197 = CC_DESIGN_APPROVAL ( #169, ( #186 ) ) ;
#198 = DIRECTION ( 'NONE',  ( 0.0000000000000000000, 0.0000000000000000000, 1.000000000000000000 ) ) ;
#199 = CARTESIAN_POINT ( 'NONE',  ( -7.971484877014367100, -12.84331110239648800, 3.588324519462857700 ) ) ;
#200 = PRODUCT_DEFINITION_SHAPE ( 'NONE', 'NONE',  #186 ) ;
#201 = PRODUCT_RELATED_PRODUCT_CATEGORY ( 'detail', '', ( #226 ) ) ;
#202 = EDGE_LOOP ( 'NONE', ( #190, #120, #90, #1, #152 ) ) ;
#203 = DATE_AND_TIME ( #121, #196 ) ;
#204 = CARTESIAN_POINT ( 'NONE',  ( 4.996003610813200500E-016, 2.442490654175340100E-015, 2.685737764411650000 ) ) ;
#205 =( NAMED_UNIT ( * ) SI_UNIT ( $, .STERADIAN. ) SOLID_ANGLE_UNIT ( ) );
#206 = DIRECTION ( 'NONE',  ( -0.0000000000000000000, -0.0000000000000000000, -1.000000000000000000 ) ) ;
#207 = FACE_OUTER_BOUND ( 'NONE', #227, .T. ) ;
#208 = PERSON_AND_ORGANIZATION ( #223, #145 ) ;
#209 = CC_DESIGN_DATE_AND_TIME_ASSIGNMENT ( #172, #105, ( #186 ) ) ;
#210 = CIRCLE ( 'NONE', #142, 12.69999999999999900 ) ;
#211 = LOCAL_TIME ( 16, 4, 34.00000000000000000, #167 ) ;
#212 = EDGE_CURVE ( 'NONE', #154, #2, #30, .T. ) ;
#213 = CARTESIAN_POINT ( 'NONE',  ( -12.69999999999999900, 3.997792089092478900E-015, 2.685737764411650000 ) ) ;
#214 = APPROVAL_DATE_TIME ( #125, #169 ) ;
#215 = DIRECTION ( 'NONE',  ( -0.0000000000000000000, -0.0000000000000000000, -1.000000000000000000 ) ) ;
#216 = DIRECTION ( 'NONE',  ( 0.0000000000000000000, 0.0000000000000000000, 1.000000000000000000 ) ) ;
#217 = FACE_OUTER_BOUND ( 'NONE', #117, .T. ) ;
#218 = DIRECTION ( 'NONE',  ( 1.000000000000000000, 0.0000000000000000000, 0.0000000000000000000 ) ) ;
#219 = CARTESIAN_POINT ( 'NONE',  ( 11.65224107106543800, -12.84331110239648600, 5.229006561554800000 ) ) ;
#220 = CC_DESIGN_PERSON_AND_ORGANIZATION_ASSIGNMENT ( #232, #86, ( #226 ) ) ;
#221 = VECTOR ( 'NONE', #198, 1000.000000000000000 ) ;
#222 = PERSON_AND_ORGANIZATION ( #223, #145 ) ;
#223 = PERSON ( 'UNSPECIFIED', 'UNSPECIFIED', 'UNSPECIFIED', ('UNSPECIFIED'), ('UNSPECIFIED'), ('UNSPECIFIED') ) ;
#224 = CARTESIAN_POINT ( 'NONE',  ( -4.554082653232210700, 4.546791518683933800, -0.9734203408224689800 ) ) ;
#225 = CC_DESIGN_SECURITY_CLASSIFICATION ( #8, ( #161 ) ) ;
#226 = PRODUCT ( '110-5205E CaF2 pl-cx 25.4 F50', '110-5205E CaF2 pl-cx 25.4 F50', '', ( #115 ) ) ;
#227 = EDGE_LOOP ( 'NONE', ( #112, #185 ) ) ;
#228 = APPROVAL_ROLE ( '' ) ;
#229 = DATE_TIME_ROLE ( 'classification_date' ) ;
#230 = PERSON_AND_ORGANIZATION_ROLE ( 'classification_officer' ) ;
#231 = EDGE_CURVE ( 'NONE', #4, #53, #88, .T. ) ;
#232 = PERSON_AND_ORGANIZATION ( #223, #145 ) ;
#233 = EDGE_LOOP ( 'NONE', ( #15, #143, #64, #144, #131 ) ) ;
#234 = COORDINATED_UNIVERSAL_TIME_OFFSET ( 2, 0, .AHEAD. ) ;
#235 = CC_DESIGN_PERSON_AND_ORGANIZATION_ASSIGNMENT ( #16, #230, ( #8 ) ) ;
ENDSEC;
END-ISO-10303-21;
