ISO-10303-21;
HEADER;
FILE_DESCRIPTION (( 'STEP AP203' ),
    '1' );
FILE_NAME ('110-5204E CaF2 pl-cx 25.4 F40.STEP',
    '2019-01-02T14:02:08',
    ( '' ),
    ( '' ),
    'SwSTEP 2.0',
    'SolidWorks 2017',
    '' );
FILE_SCHEMA (( 'CONFIG_CONTROL_DESIGN' ));
ENDSEC;

DATA;
#1 = ADVANCED_FACE ( 'NONE', ( #47 ), #209, .T. ) ;
#2 = CIRCLE ( 'NONE', #199, 12.69999999999999900 ) ;
#3 = CIRCLE ( 'NONE', #138, 12.69999999999999900 ) ;
#4 = DATE_AND_TIME ( #67, #100 ) ;
#5 = EDGE_CURVE ( 'NONE', #35, #166, #185, .T. ) ;
#6 = ORIENTED_EDGE ( 'NONE', *, *, #71, .F. ) ;
#7 = CC_DESIGN_PERSON_AND_ORGANIZATION_ASSIGNMENT ( #172, #230, ( #55 ) ) ;
#8 = VERTEX_POINT ( 'NONE', #74 ) ;
#9 = CARTESIAN_POINT ( 'NONE',  ( -14.74774557218888300, 5.604192459541037500, 4.215295852130055600 ) ) ;
#10 = ORIENTED_EDGE ( 'NONE', *, *, #83, .T. ) ;
#11 = CARTESIAN_POINT ( 'NONE',  ( -6.125354151914194700, -12.81196378586796500, 7.320506719458707700 ) ) ;
#12 = CARTESIAN_POINT ( 'NONE',  ( 3.211237040972913600, 12.81196378586796700, 5.971446010285219200 ) ) ;
#13 = CARTESIAN_POINT ( 'NONE',  ( -3.469446951953614200E-015, 5.604192459541039300, -2.612022111732012600 ) ) ;
#14 = ORIENTED_EDGE ( 'NONE', *, *, #235, .F. ) ;
#15 = APPROVAL_DATE_TIME ( #226, #64 ) ;
#16 = APPROVAL_STATUS ( 'not_yet_approved' ) ;
#17 = LOCAL_TIME ( 16, 2, 8.000000000000000000, #176 ) ;
#18 = ORIENTED_EDGE ( 'NONE', *, *, #155, .F. ) ;
#19 = EDGE_CURVE ( 'NONE', #90, #35, #22, .T. ) ;
#20 = CC_DESIGN_PERSON_AND_ORGANIZATION_ASSIGNMENT ( #127, #233, ( #55 ) ) ;
#21 = ADVANCED_FACE ( 'NONE', ( #60 ), #215, .T. ) ;
#22 = LINE ( 'NONE', #218, #139 ) ;
#23 = CARTESIAN_POINT ( 'NONE',  ( 3.211237040972909200, -12.81196378586796500, 5.971446010285220000 ) ) ;
#24 = CARTESIAN_POINT ( 'NONE',  ( 1.776356839400250100E-015, -12.81196378586796300, 5.971446010285220900 ) ) ;
#25 = CARTESIAN_POINT ( 'NONE',  ( 4.996003610813200500E-016, 2.442490654175340100E-015, 5.839504143520369600 ) ) ;
#26 = PERSON_AND_ORGANIZATION ( #142, #137 ) ;
#27 = DIRECTION ( 'NONE',  ( 1.000000000000000000, 0.0000000000000000000, -0.0000000000000000000 ) ) ;
#28 = PRODUCT_DEFINITION_SHAPE ( 'NONE', 'NONE',  #195 ) ;
#29 = ORIENTED_EDGE ( 'NONE', *, *, #32, .T. ) ;
#30 = CARTESIAN_POINT ( 'NONE',  ( 4.996003610813200500E-016, 2.442490654175340100E-015, 5.839504143520369600 ) ) ;
#31 =( NAMED_UNIT ( * ) SI_UNIT ( $, .STERADIAN. ) SOLID_ANGLE_UNIT ( ) );
#32 = EDGE_CURVE ( 'NONE', #141, #90, #3, .T. ) ;
#33 = FACE_OUTER_BOUND ( 'NONE', #175, .T. ) ;
#34 = DATE_AND_TIME ( #168, #223 ) ;
#35 = VERTEX_POINT ( 'NONE', #161 ) ;
#36 = AXIS2_PLACEMENT_3D ( 'NONE', #91, #92, #39 ) ;
#37 = ORIENTED_EDGE ( 'NONE', *, *, #71, .T. ) ;
#38 = CARTESIAN_POINT ( 'NONE',  ( -8.203093557045015400, -12.81196378586796500, 9.768984266360671900 ) ) ;
#39 = DIRECTION ( 'NONE',  ( 1.000000000000000000, 0.0000000000000000000, 0.0000000000000000000 ) ) ;
#40 = CYLINDRICAL_SURFACE ( 'NONE', #122, 12.69999999999999900 ) ;
#41 = CC_DESIGN_DATE_AND_TIME_ASSIGNMENT ( #190, #188, ( #195 ) ) ;
#42 = CARTESIAN_POINT ( 'NONE',  ( 0.0000000000000000000, 0.0000000000000000000, 0.0000000000000000000 ) ) ;
#43 = EDGE_LOOP ( 'NONE', ( #143, #52, #144, #37, #10 ) ) ;
#44 = CARTESIAN_POINT ( 'NONE',  ( 12.69999999999999900, 2.442490654175340100E-015, 7.900000000000000400 ) ) ;
#45 = CARTESIAN_POINT ( 'NONE',  ( 0.0000000000000000000, 26.11199999999999800, 7.900000000000000400 ) ) ;
#46 = EDGE_CURVE ( 'NONE', #141, #8, #212, .T. ) ;
#47 = FACE_OUTER_BOUND ( 'NONE', #129, .T. ) ;
#48 = DIRECTION ( 'NONE',  ( 1.000000000000000000, 0.0000000000000000000, 0.0000000000000000000 ) ) ;
#49 = ORIENTED_EDGE ( 'NONE', *, *, #83, .F. ) ;
#50 = ORIENTED_EDGE ( 'NONE', *, *, #174, .T. ) ;
#51 = CARTESIAN_POINT ( 'NONE',  ( 8.203093557045011900, -12.81196378586796300, 9.768984266360666500 ) ) ;
#52 = ORIENTED_EDGE ( 'NONE', *, *, #32, .F. ) ;
#53 = CARTESIAN_POINT ( 'NONE',  ( -3.211237040972911000, -12.81196378586796300, 5.971446010285221800 ) ) ;
#54 = PERSON_AND_ORGANIZATION ( #142, #137 ) ;
#55 = PRODUCT_DEFINITION_FORMATION_WITH_SPECIFIED_SOURCE ( 'ANY', '', #182, .NOT_KNOWN. ) ;
#56 = CARTESIAN_POINT ( 'NONE',  ( -5.773249631120509500, 5.604192459541039300, -2.612022111732010400 ) ) ;
#57 = DIRECTION ( 'NONE',  ( -0.0000000000000000000, -0.0000000000000000000, -1.000000000000000000 ) ) ;
#58 = CARTESIAN_POINT ( 'NONE',  ( 12.69999999999999900, 2.442490654175340100E-015, 5.839504143520369600 ) ) ;
#59 = DIRECTION ( 'NONE',  ( 1.000000000000000000, 0.0000000000000000000, 0.0000000000000000000 ) ) ;
#60 = FACE_OUTER_BOUND ( 'NONE', #171, .T. ) ;
#61 =( LENGTH_UNIT ( ) NAMED_UNIT ( * ) SI_UNIT ( .MILLI., .METRE. ) );
#62 = APPROVAL_ROLE ( '' ) ;
#63 = SECURITY_CLASSIFICATION_LEVEL ( 'unclassified' ) ;
#64 = APPROVAL ( #231, 'UNSPECIFIED' ) ;
#65 = SHAPE_DEFINITION_REPRESENTATION ( #28, #157 ) ;
#66 = ADVANCED_FACE ( 'NONE', ( #159 ), #68, .T. ) ;
#67 = CALENDAR_DATE ( 2019, 2, 1 ) ;
#68 = CYLINDRICAL_SURFACE ( 'NONE', #128, 12.69999999999999900 ) ;
#69 = DATE_AND_TIME ( #132, #17 ) ;
#70 = CARTESIAN_POINT ( 'NONE',  ( -3.469446951953614200E-015, -5.604192459541037500, -2.612022111732005000 ) ) ;
#71 = EDGE_CURVE ( 'NONE', #219, #166, #197, .T. ) ;
#72 = CARTESIAN_POINT ( 'NONE',  ( 5.773249631120505900, 5.604192459541038400, -2.612022111732009500 ) ) ;
#73 = CARTESIAN_POINT ( 'NONE',  ( 6.125354151914189400, -12.81196378586796300, 7.320506719458704100 ) ) ;
#74 = CARTESIAN_POINT ( 'NONE',  ( 1.776356839400250100E-015, 12.70000000000000100, 5.839504143520370500 ) ) ;
#75 = PERSON_AND_ORGANIZATION ( #142, #137 ) ;
#76 = DIRECTION ( 'NONE',  ( -0.0000000000000000000, -0.0000000000000000000, -1.000000000000000000 ) ) ;
#77 = DIRECTION ( 'NONE',  ( 1.000000000000000000, 0.0000000000000000000, 0.0000000000000000000 ) ) ;
#78 =( NAMED_UNIT ( * ) PLANE_ANGLE_UNIT ( ) SI_UNIT ( $, .RADIAN. ) );
#79 = DIRECTION ( 'NONE',  ( 1.000000000000000000, 0.0000000000000000000, 0.0000000000000000000 ) ) ;
#80 = APPLICATION_PROTOCOL_DEFINITION ( 'international standard', 'config_control_design', 1994, #103 ) ;
#81 = CC_DESIGN_APPROVAL ( #113, ( #93 ) ) ;
#82 = COORDINATED_UNIVERSAL_TIME_OFFSET ( 2, 0, .AHEAD. ) ;
#83 = EDGE_CURVE ( 'NONE', #166, #35, #121, .T. ) ;
#84 = APPLICATION_CONTEXT ( 'configuration controlled 3d designs of mechanical parts and assemblies' ) ;
#85 = ORIENTED_EDGE ( 'NONE', *, *, #5, .T. ) ;
#86 = APPROVAL_PERSON_ORGANIZATION ( #104, #210, #62 ) ;
#87 = AXIS2_PLACEMENT_3D ( 'NONE', #184, #111, #79 ) ;
#88 = PRODUCT_RELATED_PRODUCT_CATEGORY ( 'detail', '', ( #182 ) ) ;
#89 = CARTESIAN_POINT ( 'NONE',  ( 14.74774557218887400, -5.604192459541039300, 4.215295852130049400 ) ) ;
#90 = VERTEX_POINT ( 'NONE', #224 ) ;
#91 = CARTESIAN_POINT ( 'NONE',  ( 4.996003610813200500E-016, 2.442490654175340100E-015, 7.900000000000000400 ) ) ;
#92 = DIRECTION ( 'NONE',  ( -0.0000000000000000000, -0.0000000000000000000, -1.000000000000000000 ) ) ;
#93 = SECURITY_CLASSIFICATION ( '', '', #63 ) ;
#94 = CARTESIAN_POINT ( 'NONE',  ( -11.01232893953760700, -5.604192459541038400, -0.1866439343442280700 ) ) ;
#95 = CARTESIAN_POINT ( 'NONE',  ( 1.776356839400250100E-015, -12.69999999999999900, 5.839504143520368700 ) ) ;
#96 = CLOSED_SHELL ( 'NONE', ( #21, #158, #1, #66, #136 ) ) ;
#97 = DIRECTION ( 'NONE',  ( 0.0000000000000000000, 0.0000000000000000000, 1.000000000000000000 ) ) ;
#98 = ORIENTED_EDGE ( 'NONE', *, *, #46, .F. ) ;
#99 = CARTESIAN_POINT ( 'NONE',  ( 8.203093557045022500, 12.81196378586796500, 9.768984266360670100 ) ) ;
#100 = LOCAL_TIME ( 16, 2, 8.000000000000000000, #107 ) ;
#101 = AXIS2_PLACEMENT_3D ( 'NONE', #207, #152, #133 ) ;
#102 = APPROVAL_STATUS ( 'not_yet_approved' ) ;
#103 = APPLICATION_CONTEXT ( 'configuration controlled 3d designs of mechanical parts and assemblies' ) ;
#104 = PERSON_AND_ORGANIZATION ( #142, #137 ) ;
#105 = DESIGN_CONTEXT ( 'detailed design', #84, 'design' ) ;
#106 = APPROVAL_DATE_TIME ( #4, #113 ) ;
#107 = COORDINATED_UNIVERSAL_TIME_OFFSET ( 2, 0, .AHEAD. ) ;
#108 = CARTESIAN_POINT ( 'NONE',  ( 1.776356839400250100E-015, 12.81196378586796500, 5.971446010285219200 ) ) ;
#109 = CARTESIAN_POINT ( 'NONE',  ( 11.01232893953760500, 5.604192459541036600, -0.1866439343442350100 ) ) ;
#110 = CARTESIAN_POINT ( 'NONE',  ( -11.01232893953761000, 5.604192459541036600, -0.1866439343442315400 ) ) ;
#111 = DIRECTION ( 'NONE',  ( -0.0000000000000000000, -0.0000000000000000000, -1.000000000000000000 ) ) ;
#112 = CIRCLE ( 'NONE', #186, 12.69999999999999900 ) ;
#113 = APPROVAL ( #16, 'UNSPECIFIED' ) ;
#114 = DIRECTION ( 'NONE',  ( 0.0000000000000000000, 0.0000000000000000000, 1.000000000000000000 ) ) ;
#115 = DIRECTION ( 'NONE',  ( 1.000000000000000000, 0.0000000000000000000, 0.0000000000000000000 ) ) ;
#116 = ORIENTED_EDGE ( 'NONE', *, *, #46, .T. ) ;
#117 = DIRECTION ( 'NONE',  ( 0.0000000000000000000, 0.0000000000000000000, 1.000000000000000000 ) ) ;
#118 = CIRCLE ( 'NONE', #151, 12.69999999999999900 ) ;
#119 = APPROVAL_ROLE ( '' ) ;
#120 = DATE_TIME_ROLE ( 'classification_date' ) ;
#121 = CIRCLE ( 'NONE', #87, 12.69999999999999900 ) ;
#122 = AXIS2_PLACEMENT_3D ( 'NONE', #134, #114, #77 ) ;
#123 = CALENDAR_DATE ( 2019, 2, 1 ) ;
#124 = UNCERTAINTY_MEASURE_WITH_UNIT (LENGTH_MEASURE( 1.000000000000000100E-005 ), #61, 'distance_accuracy_value', 'NONE');
#125 = COORDINATED_UNIVERSAL_TIME_OFFSET ( 2, 0, .AHEAD. ) ;
#126 = CARTESIAN_POINT ( 'NONE',  ( -1.734723475976807100E-015, 12.81196378586796700, 5.971446010285218300 ) ) ;
#127 = PERSON_AND_ORGANIZATION ( #142, #137 ) ;
#128 = AXIS2_PLACEMENT_3D ( 'NONE', #165, #117, #59 ) ;
#129 = EDGE_LOOP ( 'NONE', ( #98, #29, #191 ) ) ;
#130 = PLANE ( 'NONE',  #145 ) ;
#131 = CARTESIAN_POINT ( 'NONE',  ( 4.996003610813200500E-016, 2.442490654175340100E-015, 5.839504143520369600 ) ) ;
#132 = CALENDAR_DATE ( 2019, 2, 1 ) ;
#133 = DIRECTION ( 'NONE',  ( 0.0000000000000000000, -1.000000000000000000, -4.147575555234446200E-016 ) ) ;
#134 = CARTESIAN_POINT ( 'NONE',  ( 4.996003610813200500E-016, 2.442490654175340100E-015, 5.839504143520369600 ) ) ;
#135 = APPROVAL_ROLE ( '' ) ;
#136 = ADVANCED_FACE ( 'NONE', ( #33 ), #130, .T. ) ;
#137 = ORGANIZATION ( 'UNSPECIFIED', 'UNSPECIFIED', '' ) ;
#138 = AXIS2_PLACEMENT_3D ( 'NONE', #203, #76, #48 ) ;
#139 = VECTOR ( 'NONE', #200, 1000.000000000000000 ) ;
#140 = CALENDAR_DATE ( 2019, 2, 1 ) ;
#141 = VERTEX_POINT ( 'NONE', #95 ) ;
#142 = PERSON ( 'UNSPECIFIED', 'UNSPECIFIED', 'UNSPECIFIED', ('UNSPECIFIED'), ('UNSPECIFIED'), ('UNSPECIFIED') ) ;
#143 = ORIENTED_EDGE ( 'NONE', *, *, #19, .F. ) ;
#144 = ORIENTED_EDGE ( 'NONE', *, *, #174, .F. ) ;
#145 = AXIS2_PLACEMENT_3D ( 'NONE', #45, #205, #27 ) ;
#146 = CARTESIAN_POINT ( 'NONE',  ( -3.469446951953614200E-015, -12.81196378586796100, 5.971446010285220900 ) ) ;
#147 = DIRECTION ( 'NONE',  ( 1.000000000000000000, 0.0000000000000000000, 0.0000000000000000000 ) ) ;
#148 = APPROVAL_PERSON_ORGANIZATION ( #54, #64, #119 ) ;
#149 = DIRECTION ( 'NONE',  ( 1.000000000000000000, 0.0000000000000000000, 0.0000000000000000000 ) ) ;
#150 = VECTOR ( 'NONE', #228, 1000.000000000000000 ) ;
#151 = AXIS2_PLACEMENT_3D ( 'NONE', #25, #183, #147 ) ;
#152 = DIRECTION ( 'NONE',  ( 1.000000000000000000, 0.0000000000000000000, 0.0000000000000000000 ) ) ;
#153 = PERSON_AND_ORGANIZATION_ROLE ( 'classification_officer' ) ;
#154 = PERSON_AND_ORGANIZATION_ROLE ( 'design_owner' ) ;
#155 = EDGE_CURVE ( 'NONE', #8, #219, #118, .T. ) ;
#156 = APPROVAL_PERSON_ORGANIZATION ( #214, #113, #135 ) ;
#157 = ADVANCED_BREP_SHAPE_REPRESENTATION ( '110-5204E CaF2 pl-cx 25.4 F40', ( #196, #180 ), #160 ) ;
#158 = ADVANCED_FACE ( 'NONE', ( #213 ), #40, .T. ) ;
#159 = FACE_OUTER_BOUND ( 'NONE', #43, .T. ) ;
#160 =( GEOMETRIC_REPRESENTATION_CONTEXT ( 3 ) GLOBAL_UNCERTAINTY_ASSIGNED_CONTEXT ( ( #124 ) ) GLOBAL_UNIT_ASSIGNED_CONTEXT ( ( #61, #78, #31 ) ) REPRESENTATION_CONTEXT ( 'NONE', 'WORKASPACE' ) );
#161 = CARTESIAN_POINT ( 'NONE',  ( -12.69999999999999900, 3.997792089092478900E-015, 7.900000000000000400 ) ) ;
#162 = CARTESIAN_POINT ( 'NONE',  ( 6.125354151914198300, 12.81196378586796800, 7.320506719458705000 ) ) ;
#163 = LOCAL_TIME ( 16, 2, 8.000000000000000000, #125 ) ;
#164 = DIRECTION ( 'NONE',  ( -0.0000000000000000000, -0.0000000000000000000, -1.000000000000000000 ) ) ;
#165 = CARTESIAN_POINT ( 'NONE',  ( 4.996003610813200500E-016, 2.442490654175340100E-015, 5.839504143520369600 ) ) ;
#166 = VERTEX_POINT ( 'NONE', #44 ) ;
#167 = APPLICATION_PROTOCOL_DEFINITION ( 'international standard', 'config_control_design', 1994, #84 ) ;
#168 = CALENDAR_DATE ( 2019, 2, 1 ) ;
#169 = EDGE_LOOP ( 'NONE', ( #14, #206, #85, #6, #18 ) ) ;
#170 = LOCAL_TIME ( 16, 2, 8.000000000000000000, #204 ) ;
#171 = EDGE_LOOP ( 'NONE', ( #50, #116, #192 ) ) ;
#172 = PERSON_AND_ORGANIZATION ( #142, #137 ) ;
#173 = CC_DESIGN_APPROVAL ( #64, ( #55 ) ) ;
#174 = EDGE_CURVE ( 'NONE', #219, #141, #112, .T. ) ;
#175 = EDGE_LOOP ( 'NONE', ( #49, #225 ) ) ;
#176 = COORDINATED_UNIVERSAL_TIME_OFFSET ( 2, 0, .AHEAD. ) ;
#177 = CARTESIAN_POINT ( 'NONE',  ( 1.776356839400250300E-015, -5.604192459541038400, -2.612022111732005900 ) ) ;
#178 = CARTESIAN_POINT ( 'NONE',  ( -14.74774557218888100, -5.604192459541039300, 4.215295852130057400 ) ) ;
#179 = CARTESIAN_POINT ( 'NONE',  ( 1.776356839400250300E-015, 5.604192459541038400, -2.612022111732009500 ) ) ;
#180 = AXIS2_PLACEMENT_3D ( 'NONE', #42, #97, #189 ) ;
#181 = CARTESIAN_POINT ( 'NONE',  ( -6.125354151914200100, 12.81196378586796700, 7.320506719458705000 ) ) ;
#182 = PRODUCT ( '110-5204E CaF2 pl-cx 25.4 F40', '110-5204E CaF2 pl-cx 25.4 F40', '', ( #208 ) ) ;
#183 = DIRECTION ( 'NONE',  ( -0.0000000000000000000, -0.0000000000000000000, -1.000000000000000000 ) ) ;
#184 = CARTESIAN_POINT ( 'NONE',  ( 4.996003610813200500E-016, 2.442490654175340100E-015, 7.900000000000000400 ) ) ;
#185 = CIRCLE ( 'NONE', #36, 12.69999999999999900 ) ;
#186 = AXIS2_PLACEMENT_3D ( 'NONE', #30, #164, #115 ) ;
#187 = CARTESIAN_POINT ( 'NONE',  ( 12.69999999999999900, 2.442490654175340100E-015, 5.839504143520369600 ) ) ;
#188 = DATE_TIME_ROLE ( 'creation_date' ) ;
#189 = DIRECTION ( 'NONE',  ( 1.000000000000000000, 0.0000000000000000000, 0.0000000000000000000 ) ) ;
#190 = DATE_AND_TIME ( #140, #170 ) ;
#191 = ORIENTED_EDGE ( 'NONE', *, *, #235, .T. ) ;
#192 = ORIENTED_EDGE ( 'NONE', *, *, #155, .T. ) ;
#193 = CC_DESIGN_PERSON_AND_ORGANIZATION_ASSIGNMENT ( #75, #211, ( #195 ) ) ;
#194 = APPROVAL_DATE_TIME ( #69, #210 ) ;
#195 = PRODUCT_DEFINITION ( 'UNKNOWN', '', #55, #105 ) ;
#196 = MANIFOLD_SOLID_BREP ( 'Imported1', #96 ) ;
#197 = LINE ( 'NONE', #187, #150 ) ;
#198 = CARTESIAN_POINT ( 'NONE',  ( 11.01232893953760000, -5.604192459541039300, -0.1866439343442324600 ) ) ;
#199 = AXIS2_PLACEMENT_3D ( 'NONE', #131, #57, #149 ) ;
#200 = DIRECTION ( 'NONE',  ( 0.0000000000000000000, 0.0000000000000000000, 1.000000000000000000 ) ) ;
#201 = CARTESIAN_POINT ( 'NONE',  ( 5.773249631120503300, -5.604192459541038400, -2.612022111732005900 ) ) ;
#202 = CARTESIAN_POINT ( 'NONE',  ( -8.203093557045026100, 12.81196378586796300, 9.768984266360673600 ) ) ;
#203 = CARTESIAN_POINT ( 'NONE',  ( 4.996003610813200500E-016, 2.442490654175340100E-015, 5.839504143520369600 ) ) ;
#204 = COORDINATED_UNIVERSAL_TIME_OFFSET ( 2, 0, .AHEAD. ) ;
#205 = DIRECTION ( 'NONE',  ( 0.0000000000000000000, 0.0000000000000000000, 1.000000000000000000 ) ) ;
#206 = ORIENTED_EDGE ( 'NONE', *, *, #19, .T. ) ;
#207 = CARTESIAN_POINT ( 'NONE',  ( 1.776356839400250100E-015, 0.0000000000000000000, 16.73000000000000000 ) ) ;
#208 = MECHANICAL_CONTEXT ( 'NONE', #103, 'mechanical' ) ;
#209 =( BOUNDED_SURFACE ( )  B_SPLINE_SURFACE ( 3, 3, ( 
 ( #38, #11, #53, #146 ),
 ( #178, #94, #222, #70 ),
 ( #9, #110, #56, #13 ),
 ( #202, #181, #216, #126 ) ),
 .UNSPECIFIED., .F., .F., .F. ) 
 B_SPLINE_SURFACE_WITH_KNOTS ( ( 4, 4 ),
 ( 4, 4 ),
 ( 0.0000000000000000000, 1.000000000000000000 ),
 ( 0.0000000000000000000, 1.000000000000000000 ),
 .UNSPECIFIED. ) 
 GEOMETRIC_REPRESENTATION_ITEM ( )  RATIONAL_B_SPLINE_SURFACE ( (
 ( 1.000000000000000000, 0.9383166204091854000, 0.9383166204091854000, 1.000000000000000000),
 ( 0.7620463833319297600, 0.7150407870030589500, 0.7150407870030589500, 0.7620463833319297600),
 ( 0.7620463833319297600, 0.7150407870030589500, 0.7150407870030589500, 0.7620463833319297600),
 ( 1.000000000000000000, 0.9383166204091854000, 0.9383166204091854000, 1.000000000000000000) ) ) 
 REPRESENTATION_ITEM ( '' )  SURFACE ( )  );
#210 = APPROVAL ( #102, 'UNSPECIFIED' ) ;
#211 = PERSON_AND_ORGANIZATION_ROLE ( 'creator' ) ;
#212 = CIRCLE ( 'NONE', #101, 16.73000000000000000 ) ;
#213 = FACE_OUTER_BOUND ( 'NONE', #169, .T. ) ;
#214 = PERSON_AND_ORGANIZATION ( #142, #137 ) ;
#215 =( BOUNDED_SURFACE ( )  B_SPLINE_SURFACE ( 3, 3, ( 
 ( #24, #23, #73, #51 ),
 ( #177, #201, #198, #89 ),
 ( #179, #72, #109, #217 ),
 ( #108, #12, #162, #99 ) ),
 .UNSPECIFIED., .F., .F., .F. ) 
 B_SPLINE_SURFACE_WITH_KNOTS ( ( 4, 4 ),
 ( 4, 4 ),
 ( 0.0000000000000000000, 1.000000000000000000 ),
 ( 0.0000000000000000000, 1.000000000000000000 ),
 .UNSPECIFIED. ) 
 GEOMETRIC_REPRESENTATION_ITEM ( )  RATIONAL_B_SPLINE_SURFACE ( (
 ( 1.000000000000000000, 0.9383166204091854000, 0.9383166204091854000, 1.000000000000000000),
 ( 0.7620463833319297600, 0.7150407870030589500, 0.7150407870030589500, 0.7620463833319297600),
 ( 0.7620463833319297600, 0.7150407870030589500, 0.7150407870030589500, 0.7620463833319297600),
 ( 1.000000000000000000, 0.9383166204091854000, 0.9383166204091854000, 1.000000000000000000) ) ) 
 REPRESENTATION_ITEM ( '' )  SURFACE ( )  );
#216 = CARTESIAN_POINT ( 'NONE',  ( -3.211237040972914500, 12.81196378586796800, 5.971446010285219200 ) ) ;
#217 = CARTESIAN_POINT ( 'NONE',  ( 14.74774557218888100, 5.604192459541037500, 4.215295852130047600 ) ) ;
#218 = CARTESIAN_POINT ( 'NONE',  ( -12.69999999999999900, 3.997792089092478900E-015, 5.839504143520369600 ) ) ;
#219 = VERTEX_POINT ( 'NONE', #58 ) ;
#220 = CC_DESIGN_PERSON_AND_ORGANIZATION_ASSIGNMENT ( #26, #153, ( #93 ) ) ;
#221 = CC_DESIGN_APPROVAL ( #210, ( #195 ) ) ;
#222 = CARTESIAN_POINT ( 'NONE',  ( -5.773249631120505900, -5.604192459541035700, -2.612022111732003300 ) ) ;
#223 = LOCAL_TIME ( 16, 2, 8.000000000000000000, #82 ) ;
#224 = CARTESIAN_POINT ( 'NONE',  ( -12.69999999999999900, 3.997792089092478900E-015, 5.839504143520369600 ) ) ;
#225 = ORIENTED_EDGE ( 'NONE', *, *, #5, .F. ) ;
#226 = DATE_AND_TIME ( #123, #163 ) ;
#227 = CC_DESIGN_SECURITY_CLASSIFICATION ( #93, ( #55 ) ) ;
#228 = DIRECTION ( 'NONE',  ( 0.0000000000000000000, 0.0000000000000000000, 1.000000000000000000 ) ) ;
#229 = CC_DESIGN_PERSON_AND_ORGANIZATION_ASSIGNMENT ( #232, #154, ( #182 ) ) ;
#230 = PERSON_AND_ORGANIZATION_ROLE ( 'creator' ) ;
#231 = APPROVAL_STATUS ( 'not_yet_approved' ) ;
#232 = PERSON_AND_ORGANIZATION ( #142, #137 ) ;
#233 = PERSON_AND_ORGANIZATION_ROLE ( 'design_supplier' ) ;
#234 = CC_DESIGN_DATE_AND_TIME_ASSIGNMENT ( #34, #120, ( #93 ) ) ;
#235 = EDGE_CURVE ( 'NONE', #90, #8, #2, .T. ) ;
ENDSEC;
END-ISO-10303-21;
