ISO-10303-21;
HEADER;
FILE_DESCRIPTION (( 'STEP AP203' ),
    '1' );
FILE_NAME ('110-5135E CaF2 pl-cx 12.7 F500.STEP',
    '2019-01-02T12:59:05',
    ( '' ),
    ( '' ),
    'SwSTEP 2.0',
    'SolidWorks 2017',
    '' );
FILE_SCHEMA (( 'CONFIG_CONTROL_DESIGN' ));
ENDSEC;

DATA;
#1 = DATE_AND_TIME ( #57, #96 ) ;
#2 = AXIS2_PLACEMENT_3D ( 'NONE', #66, #48, #229 ) ;
#3 = EDGE_CURVE ( 'NONE', #75, #73, #186, .T. ) ;
#4 = VECTOR ( 'NONE', #158, 1000.000000000000000 ) ;
#5 = PRODUCT_DEFINITION_SHAPE ( 'NONE', 'NONE',  #12 ) ;
#6 = AXIS2_PLACEMENT_3D ( 'NONE', #160, #109, #180 ) ;
#7 = CARTESIAN_POINT ( 'NONE',  ( -6.385070723581365300, -6.426176143244640900, 0.1963257095968229400 ) ) ;
#8 = CIRCLE ( 'NONE', #194, 6.349999999999999600 ) ;
#9 = ORIENTED_EDGE ( 'NONE', *, *, #201, .T. ) ;
#10 = CARTESIAN_POINT ( 'NONE',  ( 2.130112391337267900, 2.142733470278345800, -0.03293360963967708500 ) ) ;
#11 = CARTESIAN_POINT ( 'NONE',  ( 2.498001805406600200E-016, 1.221245327087670000E-015, 0.09644141785527919600 ) ) ;
#12 = PRODUCT_DEFINITION ( 'UNKNOWN', '', #113, #167 ) ;
#13 = ORIENTED_EDGE ( 'NONE', *, *, #14, .F. ) ;
#14 = EDGE_CURVE ( 'NONE', #202, #73, #8, .T. ) ;
#15 = CARTESIAN_POINT ( 'NONE',  ( 0.0000000000000000000, 13.15799999999999900, 2.100000000000000100 ) ) ;
#16 = CARTESIAN_POINT ( 'NONE',  ( 2.498001805406600200E-016, 1.221245327087670000E-015, 0.09644141785527919600 ) ) ;
#17 = COORDINATED_UNIVERSAL_TIME_OFFSET ( 2, 0, .AHEAD. ) ;
#18 = EDGE_LOOP ( 'NONE', ( #116, #118, #9 ) ) ;
#19 = CARTESIAN_POINT ( 'NONE',  ( 6.349999999999999600, 1.221245327087670000E-015, 0.09644141785527919600 ) ) ;
#20 = CC_DESIGN_PERSON_AND_ORGANIZATION_ASSIGNMENT ( #36, #107, ( #113 ) ) ;
#21 = MANIFOLD_SOLID_BREP ( 'Imported1', #114 ) ;
#22 = CC_DESIGN_APPROVAL ( #93, ( #113 ) ) ;
#23 = ADVANCED_FACE ( 'NONE', ( #141 ), #31, .T. ) ;
#24 = EDGE_CURVE ( 'NONE', #212, #75, #25, .T. ) ;
#25 = CIRCLE ( 'NONE', #108, 6.349999999999999600 ) ;
#26 = ORIENTED_EDGE ( 'NONE', *, *, #3, .T. ) ;
#27 = CC_DESIGN_PERSON_AND_ORGANIZATION_ASSIGNMENT ( #162, #235, ( #34 ) ) ;
#28 = EDGE_CURVE ( 'NONE', #73, #202, #135, .T. ) ;
#29 = CARTESIAN_POINT ( 'NONE',  ( 2.498001805406600200E-016, 1.221245327087670000E-015, 0.09644141785527919600 ) ) ;
#30 = CARTESIAN_POINT ( 'NONE',  ( -4.263256414560599900E-014, -6.349999999999794500, 0.09644141785528000100 ) ) ;
#31 = CYLINDRICAL_SURFACE ( 'NONE', #203, 6.349999999999999600 ) ;
#32 = ORIENTED_EDGE ( 'NONE', *, *, #24, .T. ) ;
#33 = CARTESIAN_POINT ( 'NONE',  ( -4.259976198783087800, 2.142733470278345800, -0.0003919215827162037300 ) ) ;
#34 = SECURITY_CLASSIFICATION ( '', '', #38 ) ;
#35 = CARTESIAN_POINT ( 'NONE',  ( 2.498001805406600200E-016, 1.221245327087670000E-015, 0.09644141785527919600 ) ) ;
#36 = PERSON_AND_ORGANIZATION ( #119, #76 ) ;
#37 = APPROVAL_STATUS ( 'not_yet_approved' ) ;
#38 = SECURITY_CLASSIFICATION_LEVEL ( 'unclassified' ) ;
#39 = EDGE_CURVE ( 'NONE', #75, #150, #41, .T. ) ;
#40 = PERSON_AND_ORGANIZATION ( #119, #76 ) ;
#41 = CIRCLE ( 'NONE', #148, 6.349999999999999600 ) ;
#42 = CC_DESIGN_DATE_AND_TIME_ASSIGNMENT ( #153, #51, ( #34 ) ) ;
#43 = PERSON_AND_ORGANIZATION ( #119, #76 ) ;
#44 = CARTESIAN_POINT ( 'NONE',  ( 4.257293440867489800, -6.426176143244640000, 0.1312909107580603500 ) ) ;
#45 = CARTESIAN_POINT ( 'NONE',  ( -6.389094312573430300, -2.142733470278352500, 0.06468385930812969900 ) ) ;
#46 = SHAPE_DEFINITION_REPRESENTATION ( #5, #68 ) ;
#47 = ORIENTED_EDGE ( 'NONE', *, *, #24, .F. ) ;
#48 = DIRECTION ( 'NONE',  ( -0.0000000000000000000, -0.0000000000000000000, -1.000000000000000000 ) ) ;
#49 = CC_DESIGN_PERSON_AND_ORGANIZATION_ASSIGNMENT ( #187, #214, ( #79 ) ) ;
#50 = DIRECTION ( 'NONE',  ( 1.000000000000000000, 0.0000000000000000000, 0.0000000000000000000 ) ) ;
#51 = DATE_TIME_ROLE ( 'classification_date' ) ;
#52 = APPROVAL_ROLE ( '' ) ;
#53 = APPLICATION_CONTEXT ( 'configuration controlled 3d designs of mechanical parts and assemblies' ) ;
#54 = APPLICATION_PROTOCOL_DEFINITION ( 'international standard', 'config_control_design', 1994, #88 ) ;
#55 =( BOUNDED_SURFACE ( )  B_SPLINE_SURFACE ( 3, 3, ( 
 ( #82, #155, #44, #226 ),
 ( #103, #67, #154, #192 ),
 ( #104, #10, #139, #171 ),
 ( #83, #65, #81, #209 ) ),
 .UNSPECIFIED., .F., .F., .F. ) 
 B_SPLINE_SURFACE_WITH_KNOTS ( ( 4, 4 ),
 ( 4, 4 ),
 ( 0.0000000000000000000, 1.000000000000000000 ),
 ( 0.0000000000000000000, 1.000000000000000000 ),
 .UNSPECIFIED. ) 
 GEOMETRIC_REPRESENTATION_ITEM ( )  RATIONAL_B_SPLINE_SURFACE ( (
 ( 1.000000000000000000, 0.9999222000702540100, 0.9999222000702540100, 1.000000000000000000),
 ( 0.9996850957560379200, 0.9996073203258200000, 0.9996073203258200000, 0.9996850957560379200),
 ( 0.9996850957560379200, 0.9996073203258200000, 0.9996073203258200000, 0.9996850957560379200),
 ( 1.000000000000000000, 0.9999222000702540100, 0.9999222000702540100, 1.000000000000000000) ) ) 
 REPRESENTATION_ITEM ( '' )  SURFACE ( )  );
#56 = CARTESIAN_POINT ( 'NONE',  ( -6.349999999999999600, 1.998896044546239400E-015, 0.09644141785527919600 ) ) ;
#57 = CALENDAR_DATE ( 2019, 2, 1 ) ;
#58 = CC_DESIGN_APPROVAL ( #137, ( #34 ) ) ;
#59 = CIRCLE ( 'NONE', #222, 209.0999999999999900 ) ;
#60 = ORIENTED_EDGE ( 'NONE', *, *, #223, .F. ) ;
#61 = ORIENTED_EDGE ( 'NONE', *, *, #14, .T. ) ;
#62 = CARTESIAN_POINT ( 'NONE',  ( 6.349999999999999600, 1.221245327087670000E-015, 2.100000000000000100 ) ) ;
#63 = DATE_AND_TIME ( #233, #173 ) ;
#64 = ORIENTED_EDGE ( 'NONE', *, *, #39, .F. ) ;
#65 = CARTESIAN_POINT ( 'NONE',  ( 2.128770934105563000, 6.426176143244633800, 0.09876971611866292000 ) ) ;
#66 = CARTESIAN_POINT ( 'NONE',  ( 2.498001805406600200E-016, 1.221245327087670000E-015, 2.100000000000000100 ) ) ;
#67 = CARTESIAN_POINT ( 'NONE',  ( 2.130112391337267500, -2.142733470278352900, -0.03293360963965066100 ) ) ;
#68 = ADVANCED_BREP_SHAPE_REPRESENTATION ( '110-5135E CaF2 pl-cx 12.7 F500', ( #21, #6 ), #157 ) ;
#69 = MECHANICAL_CONTEXT ( 'NONE', #53, 'mechanical' ) ;
#70 = DIRECTION ( 'NONE',  ( 1.000000000000000000, 0.0000000000000000000, -0.0000000000000000000 ) ) ;
#71 = APPROVAL_DATE_TIME ( #80, #93 ) ;
#72 = PERSON_AND_ORGANIZATION_ROLE ( 'design_supplier' ) ;
#73 = VERTEX_POINT ( 'NONE', #62 ) ;
#74 = CARTESIAN_POINT ( 'NONE',  ( 2.498001805406600200E-016, 1.221245327087670000E-015, 2.100000000000000100 ) ) ;
#75 = VERTEX_POINT ( 'NONE', #228 ) ;
#76 = ORGANIZATION ( 'UNSPECIFIED', 'UNSPECIFIED', '' ) ;
#77 = LOCAL_TIME ( 14, 59, 5.000000000000000000, #17 ) ;
#78 = EDGE_LOOP ( 'NONE', ( #151, #199, #32 ) ) ;
#79 = PRODUCT ( '110-5135E CaF2 pl-cx 12.7 F500', '110-5135E CaF2 pl-cx 12.7 F500', '', ( #69 ) ) ;
#80 = DATE_AND_TIME ( #224, #77 ) ;
#81 = CARTESIAN_POINT ( 'NONE',  ( 4.257293440867490700, 6.426176143244633800, 0.1312909107580326800 ) ) ;
#82 = CARTESIAN_POINT ( 'NONE',  ( -4.263256414560599900E-014, -6.426176143244640900, 0.09876971611869067600 ) ) ;
#83 = CARTESIAN_POINT ( 'NONE',  ( -4.263256414560599900E-014, 6.426176143244633800, 0.09876971611866292000 ) ) ;
#84 = LINE ( 'NONE', #91, #4 ) ;
#85 = DIRECTION ( 'NONE',  ( 1.000000000000000000, -8.881784197001252300E-016, 0.0000000000000000000 ) ) ;
#86 =( BOUNDED_SURFACE ( )  B_SPLINE_SURFACE ( 3, 3, ( 
 ( #7, #134, #211, #99 ),
 ( #45, #138, #193, #120 ),
 ( #172, #33, #208, #231 ),
 ( #132, #124, #156, #174 ) ),
 .UNSPECIFIED., .F., .F., .F. ) 
 B_SPLINE_SURFACE_WITH_KNOTS ( ( 4, 4 ),
 ( 4, 4 ),
 ( 0.0000000000000000000, 1.000000000000000000 ),
 ( 0.0000000000000000000, 1.000000000000000000 ),
 .UNSPECIFIED. ) 
 GEOMETRIC_REPRESENTATION_ITEM ( )  RATIONAL_B_SPLINE_SURFACE ( (
 ( 1.000000000000000000, 0.9999222000702540100, 0.9999222000702540100, 1.000000000000000000),
 ( 0.9996850957560379200, 0.9996073203258200000, 0.9996073203258200000, 0.9996850957560379200),
 ( 0.9996850957560379200, 0.9996073203258200000, 0.9996073203258200000, 0.9996850957560379200),
 ( 1.000000000000000000, 0.9999222000702540100, 0.9999222000702540100, 1.000000000000000000) ) ) 
 REPRESENTATION_ITEM ( '' )  SURFACE ( )  );
#87 = CC_DESIGN_APPROVAL ( #207, ( #12 ) ) ;
#88 = APPLICATION_CONTEXT ( 'configuration controlled 3d designs of mechanical parts and assemblies' ) ;
#89 = APPROVAL_STATUS ( 'not_yet_approved' ) ;
#90 = LOCAL_TIME ( 14, 59, 5.000000000000000000, #117 ) ;
#91 = CARTESIAN_POINT ( 'NONE',  ( -6.349999999999999600, 1.998896044546239400E-015, 0.09644141785527919600 ) ) ;
#92 = ADVANCED_FACE ( 'NONE', ( #97 ), #182, .T. ) ;
#93 = APPROVAL ( #37, 'UNSPECIFIED' ) ;
#94 = VECTOR ( 'NONE', #161, 1000.000000000000000 ) ;
#95 = APPROVAL_DATE_TIME ( #98, #137 ) ;
#96 = LOCAL_TIME ( 14, 59, 5.000000000000000000, #216 ) ;
#97 = FACE_OUTER_BOUND ( 'NONE', #205, .T. ) ;
#98 = DATE_AND_TIME ( #105, #90 ) ;
#99 = CARTESIAN_POINT ( 'NONE',  ( -9.280770596475918000E-014, -6.426176143244640900, 0.09876971611867076100 ) ) ;
#100 = CARTESIAN_POINT ( 'NONE',  ( -6.349999999999999600, 1.998896044546239400E-015, 2.100000000000000100 ) ) ;
#101 = FACE_OUTER_BOUND ( 'NONE', #78, .T. ) ;
#102 = ORIENTED_EDGE ( 'NONE', *, *, #3, .F. ) ;
#103 = CARTESIAN_POINT ( 'NONE',  ( -4.263256414560599900E-014, -2.142733470278352500, -0.03293360963965065400 ) ) ;
#104 = CARTESIAN_POINT ( 'NONE',  ( -4.263256414560599900E-014, 2.142733470278345400, -0.03293360963967708500 ) ) ;
#105 = CALENDAR_DATE ( 2019, 2, 1 ) ;
#106 = EDGE_LOOP ( 'NONE', ( #146, #183, #61, #102, #47 ) ) ;
#107 = PERSON_AND_ORGANIZATION_ROLE ( 'creator' ) ;
#108 = AXIS2_PLACEMENT_3D ( 'NONE', #11, #123, #85 ) ;
#109 = DIRECTION ( 'NONE',  ( 0.0000000000000000000, 0.0000000000000000000, 1.000000000000000000 ) ) ;
#110 = DIRECTION ( 'NONE',  ( -0.0000000000000000000, -0.0000000000000000000, -1.000000000000000000 ) ) ;
#111 =( NAMED_UNIT ( * ) PLANE_ANGLE_UNIT ( ) SI_UNIT ( $, .RADIAN. ) );
#112 = PERSON_AND_ORGANIZATION ( #119, #76 ) ;
#113 = PRODUCT_DEFINITION_FORMATION_WITH_SPECIFIED_SOURCE ( 'ANY', '', #79, .NOT_KNOWN. ) ;
#114 = CLOSED_SHELL ( 'NONE', ( #143, #23, #165, #92, #215 ) ) ;
#115 = LOCAL_TIME ( 14, 59, 5.000000000000000000, #169 ) ;
#116 = ORIENTED_EDGE ( 'NONE', *, *, #200, .F. ) ;
#117 = COORDINATED_UNIVERSAL_TIME_OFFSET ( 2, 0, .AHEAD. ) ;
#118 = ORIENTED_EDGE ( 'NONE', *, *, #168, .T. ) ;
#119 = PERSON ( 'UNSPECIFIED', 'UNSPECIFIED', 'UNSPECIFIED', ('UNSPECIFIED'), ('UNSPECIFIED'), ('UNSPECIFIED') ) ;
#120 = CARTESIAN_POINT ( 'NONE',  ( -9.367506770274759600E-014, -2.142733470278352500, -0.03293360963967059000 ) ) ;
#121 = APPROVAL_PERSON_ORGANIZATION ( #40, #93, #195 ) ;
#122 = VERTEX_POINT ( 'NONE', #56 ) ;
#123 = DIRECTION ( 'NONE',  ( -0.0000000000000000000, -0.0000000000000000000, -1.000000000000000000 ) ) ;
#124 = CARTESIAN_POINT ( 'NONE',  ( -4.257293440867596400, 6.426176143244633800, 0.1312909107580213000 ) ) ;
#125 = DIRECTION ( 'NONE',  ( 1.000000000000000000, 0.0000000000000000000, 0.0000000000000000000 ) ) ;
#126 = DIRECTION ( 'NONE',  ( 0.0000000000000000000, 0.0000000000000000000, 1.000000000000000000 ) ) ;
#127 = CARTESIAN_POINT ( 'NONE',  ( -4.263256414560599900E-014, 2.842170943040400100E-014, 209.0999999999999900 ) ) ;
#128 = DIRECTION ( 'NONE',  ( -0.0000000000000000000, -0.0000000000000000000, -1.000000000000000000 ) ) ;
#129 = CC_DESIGN_DATE_AND_TIME_ASSIGNMENT ( #63, #144, ( #12 ) ) ;
#130 = APPROVAL_PERSON_ORGANIZATION ( #210, #207, #52 ) ;
#131 = FACE_OUTER_BOUND ( 'NONE', #206, .T. ) ;
#132 = CARTESIAN_POINT ( 'NONE',  ( -6.385070723581366200, 6.426176143244633800, 0.1963257095967951800 ) ) ;
#133 = CARTESIAN_POINT ( 'NONE',  ( -4.263256414560599900E-014, 6.349999999999823800, 0.09644141785528000100 ) ) ;
#134 = CARTESIAN_POINT ( 'NONE',  ( -4.257293440867595500, -6.426176143244640000, 0.1312909107580490500 ) ) ;
#135 = CIRCLE ( 'NONE', #2, 6.349999999999999600 ) ;
#136 = ORIENTED_EDGE ( 'NONE', *, *, #28, .F. ) ;
#137 = APPROVAL ( #89, 'UNSPECIFIED' ) ;
#138 = CARTESIAN_POINT ( 'NONE',  ( -4.259976198783087800, -2.142733470278352900, -0.0003919215826897628600 ) ) ;
#139 = CARTESIAN_POINT ( 'NONE',  ( 4.259976198782982100, 2.142733470278345800, -0.0003919215827048603200 ) ) ;
#140 = CARTESIAN_POINT ( 'NONE',  ( 2.498001805406600200E-016, 1.221245327087670000E-015, 0.09644141785527919600 ) ) ;
#141 = FACE_OUTER_BOUND ( 'NONE', #106, .T. ) ;
#142 =( NAMED_UNIT ( * ) SI_UNIT ( $, .STERADIAN. ) SOLID_ANGLE_UNIT ( ) );
#143 = ADVANCED_FACE ( 'NONE', ( #101 ), #55, .T. ) ;
#144 = DATE_TIME_ROLE ( 'creation_date' ) ;
#145 = APPROVAL_STATUS ( 'not_yet_approved' ) ;
#146 = ORIENTED_EDGE ( 'NONE', *, *, #201, .F. ) ;
#147 = UNCERTAINTY_MEASURE_WITH_UNIT (LENGTH_MEASURE( 1.000000000000000100E-005 ), #176, 'distance_accuracy_value', 'NONE');
#148 = AXIS2_PLACEMENT_3D ( 'NONE', #189, #190, #170 ) ;
#149 = APPROVAL_DATE_TIME ( #1, #207 ) ;
#150 = VERTEX_POINT ( 'NONE', #30 ) ;
#151 = ORIENTED_EDGE ( 'NONE', *, *, #39, .T. ) ;
#152 = DIRECTION ( 'NONE',  ( 0.0000000000000000000, 0.0000000000000000000, 1.000000000000000000 ) ) ;
#153 = DATE_AND_TIME ( #204, #115 ) ;
#154 = CARTESIAN_POINT ( 'NONE',  ( 4.259976198782982100, -2.142733470278352900, -0.0003919215826784464400 ) ) ;
#155 = CARTESIAN_POINT ( 'NONE',  ( 2.128770934105563000, -6.426176143244640000, 0.09876971611869067600 ) ) ;
#156 = CARTESIAN_POINT ( 'NONE',  ( -2.128770934105683700, 6.426176143244633800, 0.09876971611864349100 ) ) ;
#157 =( GEOMETRIC_REPRESENTATION_CONTEXT ( 3 ) GLOBAL_UNCERTAINTY_ASSIGNED_CONTEXT ( ( #147 ) ) GLOBAL_UNIT_ASSIGNED_CONTEXT ( ( #176, #111, #142 ) ) REPRESENTATION_CONTEXT ( 'NONE', 'WORKASPACE' ) );
#158 = DIRECTION ( 'NONE',  ( 0.0000000000000000000, 0.0000000000000000000, 1.000000000000000000 ) ) ;
#159 = DIRECTION ( 'NONE',  ( 1.000000000000000000, 0.0000000000000000000, 0.0000000000000000000 ) ) ;
#160 = CARTESIAN_POINT ( 'NONE',  ( 0.0000000000000000000, 0.0000000000000000000, 0.0000000000000000000 ) ) ;
#161 = DIRECTION ( 'NONE',  ( 0.0000000000000000000, 0.0000000000000000000, 1.000000000000000000 ) ) ;
#162 = PERSON_AND_ORGANIZATION ( #119, #76 ) ;
#163 = APPROVAL_PERSON_ORGANIZATION ( #112, #137, #234 ) ;
#164 = ORIENTED_EDGE ( 'NONE', *, *, #168, .F. ) ;
#165 = ADVANCED_FACE ( 'NONE', ( #178 ), #86, .T. ) ;
#166 = COORDINATED_UNIVERSAL_TIME_OFFSET ( 2, 0, .AHEAD. ) ;
#167 = DESIGN_CONTEXT ( 'detailed design', #88, 'design' ) ;
#168 = EDGE_CURVE ( 'NONE', #150, #122, #230, .T. ) ;
#169 = COORDINATED_UNIVERSAL_TIME_OFFSET ( 2, 0, .AHEAD. ) ;
#170 = DIRECTION ( 'NONE',  ( 1.000000000000000000, 0.0000000000000000000, 0.0000000000000000000 ) ) ;
#171 = CARTESIAN_POINT ( 'NONE',  ( 6.389094312573339700, 2.142733470278345400, 0.06468385930811503000 ) ) ;
#172 = CARTESIAN_POINT ( 'NONE',  ( -6.389094312573431200, 2.142733470278345400, 0.06468385930810327500 ) ) ;
#173 = LOCAL_TIME ( 14, 59, 5.000000000000000000, #166 ) ;
#174 = CARTESIAN_POINT ( 'NONE',  ( -9.280770596475918000E-014, 6.426176143244633800, 0.09876971611864297800 ) ) ;
#175 = PERSON_AND_ORGANIZATION_ROLE ( 'creator' ) ;
#176 =( LENGTH_UNIT ( ) NAMED_UNIT ( * ) SI_UNIT ( .MILLI., .METRE. ) );
#177 = DIRECTION ( 'NONE',  ( 0.0000000000000000000, 0.0000000000000000000, 1.000000000000000000 ) ) ;
#178 = FACE_OUTER_BOUND ( 'NONE', #18, .T. ) ;
#179 = AXIS2_PLACEMENT_3D ( 'NONE', #35, #110, #159 ) ;
#180 = DIRECTION ( 'NONE',  ( 1.000000000000000000, 0.0000000000000000000, 0.0000000000000000000 ) ) ;
#181 = DIRECTION ( 'NONE',  ( 0.0000000000000000000, -1.000000000000000000, -7.964297163738569400E-016 ) ) ;
#182 = CYLINDRICAL_SURFACE ( 'NONE', #184, 6.349999999999999600 ) ;
#183 = ORIENTED_EDGE ( 'NONE', *, *, #223, .T. ) ;
#184 = AXIS2_PLACEMENT_3D ( 'NONE', #29, #152, #191 ) ;
#185 = CIRCLE ( 'NONE', #188, 6.349999999999999600 ) ;
#186 = LINE ( 'NONE', #19, #94 ) ;
#187 = PERSON_AND_ORGANIZATION ( #119, #76 ) ;
#188 = AXIS2_PLACEMENT_3D ( 'NONE', #140, #218, #125 ) ;
#189 = CARTESIAN_POINT ( 'NONE',  ( 2.498001805406600200E-016, 1.221245327087670000E-015, 0.09644141785527919600 ) ) ;
#190 = DIRECTION ( 'NONE',  ( -0.0000000000000000000, -0.0000000000000000000, -1.000000000000000000 ) ) ;
#191 = DIRECTION ( 'NONE',  ( 1.000000000000000000, 0.0000000000000000000, 0.0000000000000000000 ) ) ;
#192 = CARTESIAN_POINT ( 'NONE',  ( 6.389094312573338800, -2.142733470278352500, 0.06468385930814141100 ) ) ;
#193 = CARTESIAN_POINT ( 'NONE',  ( -2.130112391337388700, -2.142733470278352900, -0.03293360963967006900 ) ) ;
#194 = AXIS2_PLACEMENT_3D ( 'NONE', #74, #128, #198 ) ;
#195 = APPROVAL_ROLE ( '' ) ;
#196 = DIRECTION ( 'NONE',  ( 1.000000000000000000, 0.0000000000000000000, 0.0000000000000000000 ) ) ;
#197 = APPLICATION_PROTOCOL_DEFINITION ( 'international standard', 'config_control_design', 1994, #53 ) ;
#198 = DIRECTION ( 'NONE',  ( 1.000000000000000000, 0.0000000000000000000, 0.0000000000000000000 ) ) ;
#199 = ORIENTED_EDGE ( 'NONE', *, *, #200, .T. ) ;
#200 = EDGE_CURVE ( 'NONE', #150, #212, #59, .T. ) ;
#201 = EDGE_CURVE ( 'NONE', #122, #212, #185, .T. ) ;
#202 = VERTEX_POINT ( 'NONE', #100 ) ;
#203 = AXIS2_PLACEMENT_3D ( 'NONE', #16, #177, #196 ) ;
#204 = CALENDAR_DATE ( 2019, 2, 1 ) ;
#205 = EDGE_LOOP ( 'NONE', ( #60, #164, #64, #26, #217 ) ) ;
#206 = EDGE_LOOP ( 'NONE', ( #136, #13 ) ) ;
#207 = APPROVAL ( #145, 'UNSPECIFIED' ) ;
#208 = CARTESIAN_POINT ( 'NONE',  ( -2.130112391337388700, 2.142733470278345800, -0.03293360963969650000 ) ) ;
#209 = CARTESIAN_POINT ( 'NONE',  ( 6.385070723581275600, 6.426176143244633800, 0.1963257095968069200 ) ) ;
#210 = PERSON_AND_ORGANIZATION ( #119, #76 ) ;
#211 = CARTESIAN_POINT ( 'NONE',  ( -2.128770934105683300, -6.426176143244640000, 0.09876971611867127500 ) ) ;
#212 = VERTEX_POINT ( 'NONE', #133 ) ;
#213 = PLANE ( 'NONE',  #220 ) ;
#214 = PERSON_AND_ORGANIZATION_ROLE ( 'design_owner' ) ;
#215 = ADVANCED_FACE ( 'NONE', ( #131 ), #213, .T. ) ;
#216 = COORDINATED_UNIVERSAL_TIME_OFFSET ( 2, 0, .AHEAD. ) ;
#217 = ORIENTED_EDGE ( 'NONE', *, *, #28, .T. ) ;
#218 = DIRECTION ( 'NONE',  ( -0.0000000000000000000, -0.0000000000000000000, -1.000000000000000000 ) ) ;
#219 = CC_DESIGN_SECURITY_CLASSIFICATION ( #34, ( #113 ) ) ;
#220 = AXIS2_PLACEMENT_3D ( 'NONE', #15, #126, #70 ) ;
#221 = PERSON_AND_ORGANIZATION ( #119, #76 ) ;
#222 = AXIS2_PLACEMENT_3D ( 'NONE', #127, #50, #181 ) ;
#223 = EDGE_CURVE ( 'NONE', #122, #202, #84, .T. ) ;
#224 = CALENDAR_DATE ( 2019, 2, 1 ) ;
#225 = CC_DESIGN_PERSON_AND_ORGANIZATION_ASSIGNMENT ( #221, #72, ( #113 ) ) ;
#226 = CARTESIAN_POINT ( 'NONE',  ( 6.385070723581274700, -6.426176143244640900, 0.1963257095968346500 ) ) ;
#227 = PRODUCT_RELATED_PRODUCT_CATEGORY ( 'detail', '', ( #79 ) ) ;
#228 = CARTESIAN_POINT ( 'NONE',  ( 6.349999999999999600, 1.221245327087670000E-015, 0.09644141785527919600 ) ) ;
#229 = DIRECTION ( 'NONE',  ( 1.000000000000000000, 0.0000000000000000000, 0.0000000000000000000 ) ) ;
#230 = CIRCLE ( 'NONE', #179, 6.349999999999999600 ) ;
#231 = CARTESIAN_POINT ( 'NONE',  ( -9.367506770274759600E-014, 2.142733470278345400, -0.03293360963969702000 ) ) ;
#232 = CC_DESIGN_PERSON_AND_ORGANIZATION_ASSIGNMENT ( #43, #175, ( #12 ) ) ;
#233 = CALENDAR_DATE ( 2019, 2, 1 ) ;
#234 = APPROVAL_ROLE ( '' ) ;
#235 = PERSON_AND_ORGANIZATION_ROLE ( 'classification_officer' ) ;
ENDSEC;
END-ISO-10303-21;
