ISO-10303-21;
HEADER;
FILE_DESCRIPTION (( 'STEP AP203' ),
    '1' );
FILE_NAME ('110-5127E CaF2 pl-cx 12.7 F250.STEP',
    '2019-01-02T12:44:17',
    ( '' ),
    ( '' ),
    'SwSTEP 2.0',
    'SolidWorks 2017',
    '' );
FILE_SCHEMA (( 'CONFIG_CONTROL_DESIGN' ));
ENDSEC;

DATA;
#1 = CARTESIAN_POINT ( 'NONE',  ( 2.126983067083699600, 6.426104558896194700, 0.1975805826410348700 ) ) ;
#2 = ADVANCED_FACE ( 'NONE', ( #93 ), #128, .T. ) ;
#3 = MECHANICAL_CONTEXT ( 'NONE', #181, 'mechanical' ) ;
#4 = EDGE_CURVE ( 'NONE', #112, #138, #64, .T. ) ;
#5 = CALENDAR_DATE ( 2019, 2, 1 ) ;
#6 = VERTEX_POINT ( 'NONE', #86 ) ;
#7 = CALENDAR_DATE ( 2019, 2, 1 ) ;
#8 =( GEOMETRIC_REPRESENTATION_CONTEXT ( 3 ) GLOBAL_UNCERTAINTY_ASSIGNED_CONTEXT ( ( #9 ) ) GLOBAL_UNIT_ASSIGNED_CONTEXT ( ( #60, #95, #161 ) ) REPRESENTATION_CONTEXT ( 'NONE', 'WORKASPACE' ) );
#9 = UNCERTAINTY_MEASURE_WITH_UNIT (LENGTH_MEASURE( 1.000000000000000100E-005 ), #60, 'distance_accuracy_value', 'NONE');
#10 = LOCAL_TIME ( 14, 44, 17.00000000000000000, #63 ) ;
#11 = VERTEX_POINT ( 'NONE', #134 ) ;
#12 = AXIS2_PLACEMENT_3D ( 'NONE', #130, #182, #59 ) ;
#13 = CARTESIAN_POINT ( 'NONE',  ( -6.392079939497380200, 2.144735669556877300, 0.1294252560852336700 ) ) ;
#14 = LOCAL_TIME ( 14, 44, 17.00000000000000000, #42 ) ;
#15 = AXIS2_PLACEMENT_3D ( 'NONE', #116, #135, #189 ) ;
#16 = CARTESIAN_POINT ( 'NONE',  ( -4.252973350694801100, 6.426104558896196500, 0.2625596689085323800 ) ) ;
#17 = CARTESIAN_POINT ( 'NONE',  ( -1.151332247728777100E-014, -2.144735669556860000, -0.06594323502180736400 ) ) ;
#18 = CARTESIAN_POINT ( 'NONE',  ( -6.375986210664499300, -6.426104558896178700, 0.3924571826033895800 ) ) ;
#19 = ORIENTED_EDGE ( 'NONE', *, *, #111, .F. ) ;
#20 = AXIS2_PLACEMENT_3D ( 'NONE', #110, #35, #198 ) ;
#21 = PERSON_AND_ORGANIZATION_ROLE ( 'creator' ) ;
#22 = APPROVAL_ROLE ( '' ) ;
#23 = COORDINATED_UNIVERSAL_TIME_OFFSET ( 2, 0, .AHEAD. ) ;
#24 = EDGE_LOOP ( 'NONE', ( #32, #144, #210, #208, #206 ) ) ;
#25 = CC_DESIGN_PERSON_AND_ORGANIZATION_ASSIGNMENT ( #187, #92, ( #131 ) ) ;
#26 = ORIENTED_EDGE ( 'NONE', *, *, #211, .F. ) ;
#27 = CARTESIAN_POINT ( 'NONE',  ( 0.0000000000000000000, 13.15799999999999900, 2.200000000000000200 ) ) ;
#28 = CIRCLE ( 'NONE', #12, 6.349999999999999600 ) ;
#29 = APPROVAL ( #78, 'UNSPECIFIED' ) ;
#30 = PERSON_AND_ORGANIZATION ( #226, #103 ) ;
#31 = CARTESIAN_POINT ( 'NONE',  ( -6.349999999999999600, 1.998896044546239400E-015, 2.200000000000000200 ) ) ;
#32 = ORIENTED_EDGE ( 'NONE', *, *, #147, .F. ) ;
#33 = DIRECTION ( 'NONE',  ( -0.0000000000000000000, -0.0000000000000000000, -1.000000000000000000 ) ) ;
#34 = CARTESIAN_POINT ( 'NONE',  ( -6.392079939497381100, -2.144735669556858200, 0.1294252560852332300 ) ) ;
#35 = DIRECTION ( 'NONE',  ( 0.0000000000000000000, 0.0000000000000000000, 1.000000000000000000 ) ) ;
#36 = CARTESIAN_POINT ( 'NONE',  ( -9.069018842975636400E-015, 6.426104558896195600, 0.1975805826410354000 ) ) ;
#37 = CARTESIAN_POINT ( 'NONE',  ( 6.375986210664462900, 6.426104558896194700, 0.3924571826033811400 ) ) ;
#38 = LINE ( 'NONE', #228, #222 ) ;
#39 = CALENDAR_DATE ( 2019, 2, 1 ) ;
#40 = LINE ( 'NONE', #71, #164 ) ;
#41 = DIRECTION ( 'NONE',  ( 0.0000000000000000000, 0.0000000000000000000, 1.000000000000000000 ) ) ;
#42 = COORDINATED_UNIVERSAL_TIME_OFFSET ( 2, 0, .AHEAD. ) ;
#43 = DIRECTION ( 'NONE',  ( -0.0000000000000000000, -0.0000000000000000000, -1.000000000000000000 ) ) ;
#44 = DATE_AND_TIME ( #5, #10 ) ;
#45 = ORIENTED_EDGE ( 'NONE', *, *, #184, .T. ) ;
#46 = CC_DESIGN_SECURITY_CLASSIFICATION ( #74, ( #131 ) ) ;
#47 = DIRECTION ( 'NONE',  ( 0.0000000000000000000, 0.0000000000000000000, 1.000000000000000000 ) ) ;
#48 = CARTESIAN_POINT ( 'NONE',  ( -6.349999999999999600, 1.998896044546239400E-015, 0.1929240903663660100 ) ) ;
#49 = CC_DESIGN_APPROVAL ( #163, ( #131 ) ) ;
#50 = DIRECTION ( 'NONE',  ( 0.0000000000000000000, 0.0000000000000000000, 1.000000000000000000 ) ) ;
#51 = ADVANCED_BREP_SHAPE_REPRESENTATION ( '110-5127E CaF2 pl-cx 12.7 F250', ( #165, #20 ), #8 ) ;
#52 = CARTESIAN_POINT ( 'NONE',  ( -3.729655473350135300E-014, 2.144735669556875600, -0.06594323502180803000 ) ) ;
#53 = PERSON_AND_ORGANIZATION ( #226, #103 ) ;
#54 = EDGE_CURVE ( 'NONE', #6, #109, #179, .T. ) ;
#55 = CARTESIAN_POINT ( 'NONE',  ( -4.263708348792050600, 2.144735669556877300, -0.0008001340027647414300 ) ) ;
#56 = DIRECTION ( 'NONE',  ( -0.0000000000000000000, -0.0000000000000000000, -1.000000000000000000 ) ) ;
#57 = ADVANCED_FACE ( 'NONE', ( #84 ), #119, .T. ) ;
#58 = ORIENTED_EDGE ( 'NONE', *, *, #154, .T. ) ;
#59 = DIRECTION ( 'NONE',  ( 1.000000000000000000, 0.0000000000000000000, 0.0000000000000000000 ) ) ;
#60 =( LENGTH_UNIT ( ) NAMED_UNIT ( * ) SI_UNIT ( .MILLI., .METRE. ) );
#61 = APPROVAL_DATE_TIME ( #200, #29 ) ;
#62 = PRODUCT_DEFINITION ( 'UNKNOWN', '', #131, #114 ) ;
#63 = COORDINATED_UNIVERSAL_TIME_OFFSET ( 2, 0, .AHEAD. ) ;
#64 = CIRCLE ( 'NONE', #15, 6.349999999999999600 ) ;
#65 = FACE_OUTER_BOUND ( 'NONE', #24, .T. ) ;
#66 = AXIS2_PLACEMENT_3D ( 'NONE', #27, #224, #209 ) ;
#67 = ORIENTED_EDGE ( 'NONE', *, *, #166, .T. ) ;
#68 = DIRECTION ( 'NONE',  ( 1.000000000000000000, 0.0000000000000000000, 0.0000000000000000000 ) ) ;
#69 = CARTESIAN_POINT ( 'NONE',  ( -6.375986210664495800, 6.426104558896197400, 0.3924571826033895800 ) ) ;
#70 = ORIENTED_EDGE ( 'NONE', *, *, #54, .F. ) ;
#71 = CARTESIAN_POINT ( 'NONE',  ( 6.349999999999999600, 1.221245327087670000E-015, 0.1929240903663660100 ) ) ;
#72 = DIRECTION ( 'NONE',  ( 1.000000000000000000, -8.881784197001252300E-016, 0.0000000000000000000 ) ) ;
#73 = CARTESIAN_POINT ( 'NONE',  ( 4.263708348792008900, -2.144735669556861800, -0.0008001340027725208000 ) ) ;
#74 = SECURITY_CLASSIFICATION ( '', '', #219 ) ;
#75 = APPLICATION_CONTEXT ( 'configuration controlled 3d designs of mechanical parts and assemblies' ) ;
#76 = PERSON_AND_ORGANIZATION_ROLE ( 'classification_officer' ) ;
#77 = ADVANCED_FACE ( 'NONE', ( #65 ), #156, .T. ) ;
#78 = APPROVAL_STATUS ( 'not_yet_approved' ) ;
#79 = CIRCLE ( 'NONE', #81, 6.349999999999999600 ) ;
#80 = CC_DESIGN_PERSON_AND_ORGANIZATION_ASSIGNMENT ( #97, #177, ( #191 ) ) ;
#81 = AXIS2_PLACEMENT_3D ( 'NONE', #213, #122, #214 ) ;
#82 = PERSON_AND_ORGANIZATION ( #226, #103 ) ;
#83 =( BOUNDED_SURFACE ( )  B_SPLINE_SURFACE ( 3, 3, ( 
 ( #212, #105, #230, #123 ),
 ( #17, #142, #73, #194 ),
 ( #90, #178, #108, #232 ),
 ( #36, #1, #162, #37 ) ),
 .UNSPECIFIED., .F., .F., .F. ) 
 B_SPLINE_SURFACE_WITH_KNOTS ( ( 4, 4 ),
 ( 4, 4 ),
 ( 0.0000000000000000000, 1.000000000000000000 ),
 ( 0.0000000000000000000, 1.000000000000000000 ),
 .UNSPECIFIED. ) 
 GEOMETRIC_REPRESENTATION_ITEM ( )  RATIONAL_B_SPLINE_SURFACE ( (
 ( 1.000000000000000000, 0.9996888289057533900, 0.9996888289057533900, 1.000000000000000000),
 ( 0.9987407228639831900, 0.9984299436203809600, 0.9984299436203809600, 0.9987407228639831900),
 ( 0.9987407228639831900, 0.9984299436203809600, 0.9984299436203809600, 0.9987407228639831900),
 ( 1.000000000000000000, 0.9996888289057533900, 0.9996888289057533900, 1.000000000000000000) ) ) 
 REPRESENTATION_ITEM ( '' )  SURFACE ( )  );
#84 = FACE_OUTER_BOUND ( 'NONE', #235, .T. ) ;
#85 = ORIENTED_EDGE ( 'NONE', *, *, #195, .F. ) ;
#86 = CARTESIAN_POINT ( 'NONE',  ( 6.349999999999999600, 1.221245327087670000E-015, 2.200000000000000200 ) ) ;
#87 = CARTESIAN_POINT ( 'NONE',  ( 6.349999999999999600, 1.221245327087670000E-015, 0.1929240903663660100 ) ) ;
#88 = CARTESIAN_POINT ( 'NONE',  ( -3.556183125752454500E-014, 6.426104558896195600, 0.1975805826410342900 ) ) ;
#89 = AXIS2_PLACEMENT_3D ( 'NONE', #151, #47, #140 ) ;
#90 = CARTESIAN_POINT ( 'NONE',  ( -1.032167879798313900E-014, 2.144735669556875600, -0.06594323502180686500 ) ) ;
#91 = PRODUCT_DEFINITION_SHAPE ( 'NONE', 'NONE',  #62 ) ;
#92 = PERSON_AND_ORGANIZATION_ROLE ( 'design_supplier' ) ;
#93 = FACE_OUTER_BOUND ( 'NONE', #225, .T. ) ;
#94 = APPROVAL_STATUS ( 'not_yet_approved' ) ;
#95 =( NAMED_UNIT ( * ) PLANE_ANGLE_UNIT ( ) SI_UNIT ( $, .RADIAN. ) );
#96 = CALENDAR_DATE ( 2019, 2, 1 ) ;
#97 = PERSON_AND_ORGANIZATION ( #226, #103 ) ;
#98 = ORIENTED_EDGE ( 'NONE', *, *, #111, .T. ) ;
#99 = SHAPE_DEFINITION_REPRESENTATION ( #91, #51 ) ;
#100 = DIRECTION ( 'NONE',  ( 1.000000000000000000, 0.0000000000000000000, 0.0000000000000000000 ) ) ;
#101 = PERSON_AND_ORGANIZATION ( #226, #103 ) ;
#102 = VERTEX_POINT ( 'NONE', #48 ) ;
#103 = ORGANIZATION ( 'UNSPECIFIED', 'UNSPECIFIED', '' ) ;
#104 = CARTESIAN_POINT ( 'NONE',  ( -2.126983067083744000, -6.426104558896179600, 0.1975805826410353400 ) ) ;
#105 = CARTESIAN_POINT ( 'NONE',  ( 2.126983067083696000, -6.426104558896181400, 0.1975805826410348700 ) ) ;
#106 = DIRECTION ( 'NONE',  ( 1.000000000000000000, 0.0000000000000000000, 0.0000000000000000000 ) ) ;
#107 = APPROVAL_DATE_TIME ( #136, #170 ) ;
#108 = CARTESIAN_POINT ( 'NONE',  ( 4.263708348792010700, 2.144735669556874700, -0.0008001340027720600100 ) ) ;
#109 = VERTEX_POINT ( 'NONE', #31 ) ;
#110 = CARTESIAN_POINT ( 'NONE',  ( 0.0000000000000000000, 0.0000000000000000000, 0.0000000000000000000 ) ) ;
#111 = EDGE_CURVE ( 'NONE', #102, #11, #133, .T. ) ;
#112 = VERTEX_POINT ( 'NONE', #87 ) ;
#113 = APPROVAL_ROLE ( '' ) ;
#114 = DESIGN_CONTEXT ( 'detailed design', #75, 'design' ) ;
#115 =( BOUNDED_SURFACE ( )  B_SPLINE_SURFACE ( 3, 3, ( 
 ( #18, #175, #104, #192 ),
 ( #34, #229, #139, #172 ),
 ( #13, #55, #155, #52 ),
 ( #69, #16, #174, #88 ) ),
 .UNSPECIFIED., .F., .F., .F. ) 
 B_SPLINE_SURFACE_WITH_KNOTS ( ( 4, 4 ),
 ( 4, 4 ),
 ( 0.0000000000000000000, 1.000000000000000000 ),
 ( 0.0000000000000000000, 1.000000000000000000 ),
 .UNSPECIFIED. ) 
 GEOMETRIC_REPRESENTATION_ITEM ( )  RATIONAL_B_SPLINE_SURFACE ( (
 ( 1.000000000000000000, 0.9996888289057533900, 0.9996888289057533900, 1.000000000000000000),
 ( 0.9987407228639831900, 0.9984299436203809600, 0.9984299436203809600, 0.9987407228639831900),
 ( 0.9987407228639831900, 0.9984299436203809600, 0.9984299436203809600, 0.9987407228639831900),
 ( 1.000000000000000000, 0.9996888289057533900, 0.9996888289057533900, 1.000000000000000000) ) ) 
 REPRESENTATION_ITEM ( '' )  SURFACE ( )  );
#116 = CARTESIAN_POINT ( 'NONE',  ( 2.498001805406600200E-016, 1.221245327087670000E-015, 0.1929240903663660100 ) ) ;
#117 = ORIENTED_EDGE ( 'NONE', *, *, #4, .T. ) ;
#118 = CC_DESIGN_DATE_AND_TIME_ASSIGNMENT ( #44, #199, ( #62 ) ) ;
#119 = PLANE ( 'NONE',  #66 ) ;
#120 = CIRCLE ( 'NONE', #158, 104.5999999999999900 ) ;
#121 = PRODUCT_RELATED_PRODUCT_CATEGORY ( 'detail', '', ( #191 ) ) ;
#122 = DIRECTION ( 'NONE',  ( -0.0000000000000000000, -0.0000000000000000000, -1.000000000000000000 ) ) ;
#123 = CARTESIAN_POINT ( 'NONE',  ( 6.375986210664458500, -6.426104558896182300, 0.3924571826033811400 ) ) ;
#124 = CARTESIAN_POINT ( 'NONE',  ( 2.498001805406600200E-016, 1.221245327087670000E-015, 0.1929240903663660100 ) ) ;
#125 = APPLICATION_PROTOCOL_DEFINITION ( 'international standard', 'config_control_design', 1994, #181 ) ;
#126 = PERSON_AND_ORGANIZATION_ROLE ( 'creator' ) ;
#127 = CIRCLE ( 'NONE', #207, 6.349999999999999600 ) ;
#128 = CYLINDRICAL_SURFACE ( 'NONE', #180, 6.349999999999999600 ) ;
#129 = APPROVAL_ROLE ( '' ) ;
#130 = CARTESIAN_POINT ( 'NONE',  ( 2.498001805406600200E-016, 1.221245327087670000E-015, 2.200000000000000200 ) ) ;
#131 = PRODUCT_DEFINITION_FORMATION_WITH_SPECIFIED_SOURCE ( 'ANY', '', #191, .NOT_KNOWN. ) ;
#132 = APPROVAL_PERSON_ORGANIZATION ( #196, #163, #129 ) ;
#133 = CIRCLE ( 'NONE', #217, 6.349999999999999600 ) ;
#134 = CARTESIAN_POINT ( 'NONE',  ( -9.091279133414059700E-015, 6.350000000000021800, 0.1929240903663651300 ) ) ;
#135 = DIRECTION ( 'NONE',  ( -0.0000000000000000000, -0.0000000000000000000, -1.000000000000000000 ) ) ;
#136 = DATE_AND_TIME ( #96, #153 ) ;
#137 = CARTESIAN_POINT ( 'NONE',  ( 2.498001805406600200E-016, 1.221245327087670000E-015, 2.200000000000000200 ) ) ;
#138 = VERTEX_POINT ( 'NONE', #231 ) ;
#139 = CARTESIAN_POINT ( 'NONE',  ( -2.132351819082692200, -2.144735669556860000, -0.06594323502180736400 ) ) ;
#140 = DIRECTION ( 'NONE',  ( 1.000000000000000000, 0.0000000000000000000, 0.0000000000000000000 ) ) ;
#141 = LOCAL_TIME ( 14, 44, 17.00000000000000000, #143 ) ;
#142 = CARTESIAN_POINT ( 'NONE',  ( 2.132351819082646000, -2.144735669556860900, -0.06594323502180787800 ) ) ;
#143 = COORDINATED_UNIVERSAL_TIME_OFFSET ( 2, 0, .AHEAD. ) ;
#144 = ORIENTED_EDGE ( 'NONE', *, *, #154, .F. ) ;
#145 = APPROVAL_STATUS ( 'not_yet_approved' ) ;
#146 = ADVANCED_FACE ( 'NONE', ( #167 ), #115, .T. ) ;
#147 = EDGE_CURVE ( 'NONE', #102, #109, #38, .T. ) ;
#148 = ORIENTED_EDGE ( 'NONE', *, *, #184, .F. ) ;
#149 = CC_DESIGN_PERSON_AND_ORGANIZATION_ASSIGNMENT ( #150, #126, ( #62 ) ) ;
#150 = PERSON_AND_ORGANIZATION ( #226, #103 ) ;
#151 = CARTESIAN_POINT ( 'NONE',  ( 2.498001805406600200E-016, 1.221245327087670000E-015, 0.1929240903663660100 ) ) ;
#152 = CARTESIAN_POINT ( 'NONE',  ( 2.498001805406600200E-016, 1.221245327087670000E-015, 0.1929240903663660100 ) ) ;
#153 = LOCAL_TIME ( 14, 44, 17.00000000000000000, #23 ) ;
#154 = EDGE_CURVE ( 'NONE', #138, #102, #79, .T. ) ;
#155 = CARTESIAN_POINT ( 'NONE',  ( -2.132351819082691300, 2.144735669556876400, -0.06594323502180697600 ) ) ;
#156 = CYLINDRICAL_SURFACE ( 'NONE', #89, 6.349999999999999600 ) ;
#157 = DIRECTION ( 'NONE',  ( -2.778066538033659800E-016, -1.000000000000000000, 0.0000000000000000000 ) ) ;
#158 = AXIS2_PLACEMENT_3D ( 'NONE', #159, #227, #157 ) ;
#159 = CARTESIAN_POINT ( 'NONE',  ( 1.421085471520200100E-014, 1.421085471520200100E-014, 104.5999999999999900 ) ) ;
#160 = LOCAL_TIME ( 14, 44, 17.00000000000000000, #202 ) ;
#161 =( NAMED_UNIT ( * ) SI_UNIT ( $, .STERADIAN. ) SOLID_ANGLE_UNIT ( ) );
#162 = CARTESIAN_POINT ( 'NONE',  ( 4.252973350694764700, 6.426104558896194700, 0.2625596689085250000 ) ) ;
#163 = APPROVAL ( #94, 'UNSPECIFIED' ) ;
#164 = VECTOR ( 'NONE', #50, 1000.000000000000000 ) ;
#165 = MANIFOLD_SOLID_BREP ( 'Imported1', #218 ) ;
#166 = EDGE_CURVE ( 'NONE', #138, #11, #120, .T. ) ;
#167 = FACE_OUTER_BOUND ( 'NONE', #171, .T. ) ;
#168 = CC_DESIGN_APPROVAL ( #29, ( #62 ) ) ;
#169 = DATE_AND_TIME ( #233, #141 ) ;
#170 = APPROVAL ( #145, 'UNSPECIFIED' ) ;
#171 = EDGE_LOOP ( 'NONE', ( #186, #58, #98 ) ) ;
#172 = CARTESIAN_POINT ( 'NONE',  ( -3.816391647148975600E-014, -2.144735669556860000, -0.06594323502180841900 ) ) ;
#173 = CARTESIAN_POINT ( 'NONE',  ( 2.498001805406600200E-016, 1.221245327087670000E-015, 0.1929240903663660100 ) ) ;
#174 = CARTESIAN_POINT ( 'NONE',  ( -2.126983067083740400, 6.426104558896196500, 0.1975805826410353400 ) ) ;
#175 = CARTESIAN_POINT ( 'NONE',  ( -4.252973350694804600, -6.426104558896179600, 0.2625596689085323800 ) ) ;
#176 = CC_DESIGN_PERSON_AND_ORGANIZATION_ASSIGNMENT ( #101, #76, ( #74 ) ) ;
#177 = PERSON_AND_ORGANIZATION_ROLE ( 'design_owner' ) ;
#178 = CARTESIAN_POINT ( 'NONE',  ( 2.132351819082647400, 2.144735669556875600, -0.06594323502180739200 ) ) ;
#179 = CIRCLE ( 'NONE', #205, 6.349999999999999600 ) ;
#180 = AXIS2_PLACEMENT_3D ( 'NONE', #152, #41, #100 ) ;
#181 = APPLICATION_CONTEXT ( 'configuration controlled 3d designs of mechanical parts and assemblies' ) ;
#182 = DIRECTION ( 'NONE',  ( -0.0000000000000000000, -0.0000000000000000000, -1.000000000000000000 ) ) ;
#183 = CC_DESIGN_PERSON_AND_ORGANIZATION_ASSIGNMENT ( #82, #21, ( #131 ) ) ;
#184 = EDGE_CURVE ( 'NONE', #11, #112, #127, .T. ) ;
#185 = APPROVAL_PERSON_ORGANIZATION ( #30, #170, #113 ) ;
#186 = ORIENTED_EDGE ( 'NONE', *, *, #166, .F. ) ;
#187 = PERSON_AND_ORGANIZATION ( #226, #103 ) ;
#188 = APPROVAL_PERSON_ORGANIZATION ( #53, #29, #22 ) ;
#189 = DIRECTION ( 'NONE',  ( 1.000000000000000000, 0.0000000000000000000, 0.0000000000000000000 ) ) ;
#190 = EDGE_LOOP ( 'NONE', ( #117, #67, #45 ) ) ;
#191 = PRODUCT ( '110-5127E CaF2 pl-cx 12.7 F250', '110-5127E CaF2 pl-cx 12.7 F250', '', ( #3 ) ) ;
#192 = CARTESIAN_POINT ( 'NONE',  ( -3.903127820947816000E-014, -6.426104558896180500, 0.1975805826410342900 ) ) ;
#193 = DIRECTION ( 'NONE',  ( 0.0000000000000000000, 0.0000000000000000000, 1.000000000000000000 ) ) ;
#194 = CARTESIAN_POINT ( 'NONE',  ( 6.392079939497342900, -2.144735669556861800, 0.1294252560852247300 ) ) ;
#195 = EDGE_CURVE ( 'NONE', #112, #6, #40, .T. ) ;
#196 = PERSON_AND_ORGANIZATION ( #226, #103 ) ;
#197 = CC_DESIGN_APPROVAL ( #170, ( #74 ) ) ;
#198 = DIRECTION ( 'NONE',  ( 1.000000000000000000, 0.0000000000000000000, 0.0000000000000000000 ) ) ;
#199 = DATE_TIME_ROLE ( 'creation_date' ) ;
#200 = DATE_AND_TIME ( #7, #14 ) ;
#201 = ADVANCED_FACE ( 'NONE', ( #221 ), #83, .T. ) ;
#202 = COORDINATED_UNIVERSAL_TIME_OFFSET ( 2, 0, .AHEAD. ) ;
#203 = ORIENTED_EDGE ( 'NONE', *, *, #147, .T. ) ;
#204 = CC_DESIGN_DATE_AND_TIME_ASSIGNMENT ( #169, #216, ( #74 ) ) ;
#205 = AXIS2_PLACEMENT_3D ( 'NONE', #137, #43, #68 ) ;
#206 = ORIENTED_EDGE ( 'NONE', *, *, #54, .T. ) ;
#207 = AXIS2_PLACEMENT_3D ( 'NONE', #173, #33, #72 ) ;
#208 = ORIENTED_EDGE ( 'NONE', *, *, #195, .T. ) ;
#209 = DIRECTION ( 'NONE',  ( 1.000000000000000000, 0.0000000000000000000, -0.0000000000000000000 ) ) ;
#210 = ORIENTED_EDGE ( 'NONE', *, *, #4, .F. ) ;
#211 = EDGE_CURVE ( 'NONE', #109, #6, #28, .T. ) ;
#212 = CARTESIAN_POINT ( 'NONE',  ( -1.263944805197064600E-014, -6.426104558896180500, 0.1975805826410354000 ) ) ;
#213 = CARTESIAN_POINT ( 'NONE',  ( 2.498001805406600200E-016, 1.221245327087670000E-015, 0.1929240903663660100 ) ) ;
#214 = DIRECTION ( 'NONE',  ( 1.000000000000000000, 0.0000000000000000000, 0.0000000000000000000 ) ) ;
#215 = ORIENTED_EDGE ( 'NONE', *, *, #211, .T. ) ;
#216 = DATE_TIME_ROLE ( 'classification_date' ) ;
#217 = AXIS2_PLACEMENT_3D ( 'NONE', #124, #56, #106 ) ;
#218 = CLOSED_SHELL ( 'NONE', ( #201, #2, #146, #77, #57 ) ) ;
#219 = SECURITY_CLASSIFICATION_LEVEL ( 'unclassified' ) ;
#220 = DATE_AND_TIME ( #39, #160 ) ;
#221 = FACE_OUTER_BOUND ( 'NONE', #190, .T. ) ;
#222 = VECTOR ( 'NONE', #193, 1000.000000000000000 ) ;
#223 = APPROVAL_DATE_TIME ( #220, #163 ) ;
#224 = DIRECTION ( 'NONE',  ( 0.0000000000000000000, 0.0000000000000000000, 1.000000000000000000 ) ) ;
#225 = EDGE_LOOP ( 'NONE', ( #19, #203, #215, #85, #148 ) ) ;
#226 = PERSON ( 'UNSPECIFIED', 'UNSPECIFIED', 'UNSPECIFIED', ('UNSPECIFIED'), ('UNSPECIFIED'), ('UNSPECIFIED') ) ;
#227 = DIRECTION ( 'NONE',  ( 1.000000000000000000, -2.778066538033659800E-016, -2.400814875991999800E-016 ) ) ;
#228 = CARTESIAN_POINT ( 'NONE',  ( -6.349999999999999600, 1.998896044546239400E-015, 0.1929240903663660100 ) ) ;
#229 = CARTESIAN_POINT ( 'NONE',  ( -4.263708348792051500, -2.144735669556859100, -0.0008001340027651753300 ) ) ;
#230 = CARTESIAN_POINT ( 'NONE',  ( 4.252973350694760200, -6.426104558896181400, 0.2625596689085250000 ) ) ;
#231 = CARTESIAN_POINT ( 'NONE',  ( -1.261942363671681700E-014, -6.350000000000006800, 0.1929240903663651300 ) ) ;
#232 = CARTESIAN_POINT ( 'NONE',  ( 6.392079939497344700, 2.144735669556873800, 0.1294252560852252000 ) ) ;
#233 = CALENDAR_DATE ( 2019, 2, 1 ) ;
#234 = APPLICATION_PROTOCOL_DEFINITION ( 'international standard', 'config_control_design', 1994, #75 ) ;
#235 = EDGE_LOOP ( 'NONE', ( #70, #26 ) ) ;
ENDSEC;
END-ISO-10303-21;
