ISO-10303-21;
HEADER;
FILE_DESCRIPTION (( 'STEP AP203' ),
    '1' );
FILE_NAME ('110-5123E CaF2 pl-cx 12.7 F200.STEP',
    '2019-01-02T12:16:00',
    ( '' ),
    ( '' ),
    'SwSTEP 2.0',
    'SolidWorks 2017',
    '' );
FILE_SCHEMA (( 'CONFIG_CONTROL_DESIGN' ));
ENDSEC;

DATA;
#1 = DIRECTION ( 'NONE',  ( 0.0000000000000000000, 0.0000000000000000000, 1.000000000000000000 ) ) ;
#2 = CARTESIAN_POINT ( 'NONE',  ( 4.249719928997630600, 6.426050642185069600, 0.3284146652467651000 ) ) ;
#3 = AXIS2_PLACEMENT_3D ( 'NONE', #153, #1, #172 ) ;
#4 = DIRECTION ( 'NONE',  ( 0.0000000000000000000, 0.0000000000000000000, 1.000000000000000000 ) ) ;
#5 = CARTESIAN_POINT ( 'NONE',  ( 1.734723475976807100E-015, 6.426050642185066900, 0.2471920547990719400 ) ) ;
#6 = VECTOR ( 'NONE', #4, 1000.000000000000000 ) ;
#7 = DIRECTION ( 'NONE',  ( 0.0000000000000000000, 0.0000000000000000000, 1.000000000000000000 ) ) ;
#8 = DIRECTION ( 'NONE',  ( 3.473828569973949900E-016, -1.000000000000000000, 0.0000000000000000000 ) ) ;
#9 = MECHANICAL_CONTEXT ( 'NONE', #229, 'mechanical' ) ;
#10 = LOCAL_TIME ( 14, 16, 0.0000000000000000000, #194 ) ;
#11 = PERSON_AND_ORGANIZATION_ROLE ( 'classification_officer' ) ;
#12 = APPROVAL ( #49, 'UNSPECIFIED' ) ;
#13 = ORIENTED_EDGE ( 'NONE', *, *, #155, .F. ) ;
#14 =( NAMED_UNIT ( * ) PLANE_ANGLE_UNIT ( ) SI_UNIT ( $, .RADIAN. ) );
#15 = LOCAL_TIME ( 14, 16, 0.0000000000000000000, #100 ) ;
#16 = DESIGN_CONTEXT ( 'detailed design', #212, 'design' ) ;
#17 = LOCAL_TIME ( 14, 16, 0.0000000000000000000, #232 ) ;
#18 = DATE_AND_TIME ( #180, #15 ) ;
#19 = PRODUCT_DEFINITION ( 'UNKNOWN', '', #40, #16 ) ;
#20 = ORIENTED_EDGE ( 'NONE', *, *, #227, .T. ) ;
#21 = CARTESIAN_POINT ( 'NONE',  ( -6.349999999999999600, 1.998896044546239400E-015, 0.2413673532529370400 ) ) ;
#22 = UNCERTAINTY_MEASURE_WITH_UNIT (LENGTH_MEASURE( 1.000000000000000100E-005 ), #140, 'distance_accuracy_value', 'NONE');
#23 = FACE_OUTER_BOUND ( 'NONE', #131, .T. ) ;
#24 = CALENDAR_DATE ( 2019, 2, 1 ) ;
#25 = CARTESIAN_POINT ( 'NONE',  ( 4.336808689942016900E-015, 2.146245091401766600, -0.08255999894602909800 ) ) ;
#26 = CC_DESIGN_APPROVAL ( #12, ( #138 ) ) ;
#27 = CARTESIAN_POINT ( 'NONE',  ( 0.0000000000000000000, 0.0000000000000000000, 83.65000000000000600 ) ) ;
#28 = CARTESIAN_POINT ( 'NONE',  ( -2.125636146524716400, -6.426050642185059800, 0.2471920547990720000 ) ) ;
#29 = CARTESIAN_POINT ( 'NONE',  ( -6.349999999999999600, 1.998896044546239400E-015, 2.200000000000000200 ) ) ;
#30 = PLANE ( 'NONE',  #122 ) ;
#31 = DATE_AND_TIME ( #224, #235 ) ;
#32 = APPROVAL_ROLE ( '' ) ;
#33 = VERTEX_POINT ( 'NONE', #21 ) ;
#34 = DATE_AND_TIME ( #24, #54 ) ;
#35 = EDGE_CURVE ( 'NONE', #167, #228, #150, .T. ) ;
#36 = CIRCLE ( 'NONE', #99, 6.349999999999999600 ) ;
#37 = ORIENTED_EDGE ( 'NONE', *, *, #161, .F. ) ;
#38 = CIRCLE ( 'NONE', #67, 83.65000000000000600 ) ;
#39 = VERTEX_POINT ( 'NONE', #201 ) ;
#40 = PRODUCT_DEFINITION_FORMATION_WITH_SPECIFIED_SOURCE ( 'ANY', '', #41, .NOT_KNOWN. ) ;
#41 = PRODUCT ( '110-5123E CaF2 pl-cx 12.7 F200', '110-5123E CaF2 pl-cx 12.7 F200', '', ( #9 ) ) ;
#42 = ORIENTED_EDGE ( 'NONE', *, *, #35, .F. ) ;
#43 = CARTESIAN_POINT ( 'NONE',  ( -6.369148886715648500, -6.426050642185061600, 0.4907412514822823100 ) ) ;
#44 = ADVANCED_FACE ( 'NONE', ( #90 ), #55, .T. ) ;
#45 = CARTESIAN_POINT ( 'NONE',  ( -2.134040334610228100, -2.146245091401759000, -0.08255999894602869500 ) ) ;
#46 = CIRCLE ( 'NONE', #213, 6.349999999999999600 ) ;
#47 = CIRCLE ( 'NONE', #146, 6.349999999999999600 ) ;
#48 = CARTESIAN_POINT ( 'NONE',  ( 0.0000000000000000000, 13.15799999999999900, 2.200000000000000200 ) ) ;
#49 = APPROVAL_STATUS ( 'not_yet_approved' ) ;
#50 = COORDINATED_UNIVERSAL_TIME_OFFSET ( 2, 0, .AHEAD. ) ;
#51 = DATE_TIME_ROLE ( 'creation_date' ) ;
#52 = APPROVAL_PERSON_ORGANIZATION ( #128, #69, #32 ) ;
#53 = EDGE_CURVE ( 'NONE', #228, #220, #183, .T. ) ;
#54 = LOCAL_TIME ( 14, 16, 0.0000000000000000000, #50 ) ;
#55 =( BOUNDED_SURFACE ( )  B_SPLINE_SURFACE ( 3, 3, ( 
 ( #217, #166, #95, #60 ),
 ( #115, #93, #188, #74 ),
 ( #114, #116, #189, #202 ),
 ( #170, #219, #2, #76 ) ),
 .UNSPECIFIED., .F., .F., .F. ) 
 B_SPLINE_SURFACE_WITH_KNOTS ( ( 4, 4 ),
 ( 4, 4 ),
 ( 0.0000000000000000000, 1.000000000000000000 ),
 ( 0.0000000000000000000, 1.000000000000000000 ),
 .UNSPECIFIED. ) 
 GEOMETRIC_REPRESENTATION_ITEM ( )  RATIONAL_B_SPLINE_SURFACE ( (
 ( 1.000000000000000000, 0.9995131295779148300, 0.9995131295779148300, 1.000000000000000000),
 ( 0.9980299497525477700, 0.9975440384896581100, 0.9975440384896581100, 0.9980299497525477700),
 ( 0.9980299497525477700, 0.9975440384896581100, 0.9975440384896581100, 0.9980299497525477700),
 ( 1.000000000000000000, 0.9995131295779148300, 0.9995131295779148300, 1.000000000000000000) ) ) 
 REPRESENTATION_ITEM ( '' )  SURFACE ( )  );
#56 = PERSON_AND_ORGANIZATION ( #111, #231 ) ;
#57 = DIRECTION ( 'NONE',  ( 1.000000000000000000, 0.0000000000000000000, 0.0000000000000000000 ) ) ;
#58 = FACE_OUTER_BOUND ( 'NONE', #109, .T. ) ;
#59 = EDGE_CURVE ( 'NONE', #33, #68, #36, .T. ) ;
#60 = CARTESIAN_POINT ( 'NONE',  ( 6.369148886715605900, -6.426050642185056300, 0.4907412514822736500 ) ) ;
#61 = APPROVAL_PERSON_ORGANIZATION ( #159, #107, #179 ) ;
#62 = DIRECTION ( 'NONE',  ( 1.000000000000000000, 0.0000000000000000000, -0.0000000000000000000 ) ) ;
#63 = CARTESIAN_POINT ( 'NONE',  ( 6.071532165918824800E-015, -2.146245091401759000, -0.08255999894602854300 ) ) ;
#64 =( GEOMETRIC_REPRESENTATION_CONTEXT ( 3 ) GLOBAL_UNCERTAINTY_ASSIGNED_CONTEXT ( ( #22 ) ) GLOBAL_UNIT_ASSIGNED_CONTEXT ( ( #140, #14, #144 ) ) REPRESENTATION_CONTEXT ( 'NONE', 'WORKASPACE' ) );
#65 = DIRECTION ( 'NONE',  ( -0.0000000000000000000, -0.0000000000000000000, -1.000000000000000000 ) ) ;
#66 = SHAPE_DEFINITION_REPRESENTATION ( #130, #72 ) ;
#67 = AXIS2_PLACEMENT_3D ( 'NONE', #27, #82, #8 ) ;
#68 = VERTEX_POINT ( 'NONE', #185 ) ;
#69 = APPROVAL ( #85, 'UNSPECIFIED' ) ;
#70 = ORIENTED_EDGE ( 'NONE', *, *, #196, .T. ) ;
#71 = APPROVAL_PERSON_ORGANIZATION ( #168, #12, #125 ) ;
#72 = ADVANCED_BREP_SHAPE_REPRESENTATION ( '110-5123E CaF2 pl-cx 12.7 F200', ( #164, #132 ), #64 ) ;
#73 = ORIENTED_EDGE ( 'NONE', *, *, #161, .T. ) ;
#74 = CARTESIAN_POINT ( 'NONE',  ( 6.394330771807323000, -2.146245091401756300, 0.1619521251226278000 ) ) ;
#75 = CIRCLE ( 'NONE', #165, 6.349999999999999600 ) ;
#76 = CARTESIAN_POINT ( 'NONE',  ( 6.369148886715601400, 6.426050642185069600, 0.4907412514822736500 ) ) ;
#77 = CARTESIAN_POINT ( 'NONE',  ( -4.266522167542778000, 2.146245091401764800, -0.001016256353435988500 ) ) ;
#78 = ORIENTED_EDGE ( 'NONE', *, *, #227, .F. ) ;
#79 = CARTESIAN_POINT ( 'NONE',  ( -6.394330771807371000, 2.146245091401764800, 0.1619521251226360400 ) ) ;
#80 = ADVANCED_FACE ( 'NONE', ( #58 ), #133, .T. ) ;
#81 = CARTESIAN_POINT ( 'NONE',  ( 6.938893903907228400E-015, -6.426050642185058900, 0.2471920547990720500 ) ) ;
#82 = DIRECTION ( 'NONE',  ( 1.000000000000000000, 3.473828569973949900E-016, 3.002094871832189900E-016 ) ) ;
#83 = CARTESIAN_POINT ( 'NONE',  ( -6.394330771807369200, -2.146245091401761200, 0.1619521251226365100 ) ) ;
#84 = ORIENTED_EDGE ( 'NONE', *, *, #117, .F. ) ;
#85 = APPROVAL_STATUS ( 'not_yet_approved' ) ;
#86 = ORIENTED_EDGE ( 'NONE', *, *, #191, .F. ) ;
#87 = CC_DESIGN_APPROVAL ( #107, ( #40 ) ) ;
#88 = CIRCLE ( 'NONE', #169, 6.349999999999999600 ) ;
#89 = ORIENTED_EDGE ( 'NONE', *, *, #53, .T. ) ;
#90 = FACE_OUTER_BOUND ( 'NONE', #126, .T. ) ;
#91 = VECTOR ( 'NONE', #92, 1000.000000000000000 ) ;
#92 = DIRECTION ( 'NONE',  ( 0.0000000000000000000, 0.0000000000000000000, 1.000000000000000000 ) ) ;
#93 = CARTESIAN_POINT ( 'NONE',  ( 2.134040334610234800, -2.146245091401756800, -0.08255999894603860400 ) ) ;
#94 = DIRECTION ( 'NONE',  ( -0.0000000000000000000, -0.0000000000000000000, -1.000000000000000000 ) ) ;
#95 = CARTESIAN_POINT ( 'NONE',  ( 4.249719928997636000, -6.426050642185057200, 0.3284146652467651000 ) ) ;
#96 = PERSON_AND_ORGANIZATION ( #111, #231 ) ;
#97 = CARTESIAN_POINT ( 'NONE',  ( 0.0000000000000000000, 0.0000000000000000000, 0.0000000000000000000 ) ) ;
#98 = CARTESIAN_POINT ( 'NONE',  ( -2.134040334610229900, 2.146245091401765200, -0.08255999894602923700 ) ) ;
#99 = AXIS2_PLACEMENT_3D ( 'NONE', #156, #223, #139 ) ;
#100 = COORDINATED_UNIVERSAL_TIME_OFFSET ( 2, 0, .AHEAD. ) ;
#101 = PERSON_AND_ORGANIZATION ( #111, #231 ) ;
#102 = CARTESIAN_POINT ( 'NONE',  ( -6.349999999999999600, 1.998896044546239400E-015, 0.2413673532529370400 ) ) ;
#103 = DIRECTION ( 'NONE',  ( 1.000000000000000000, 0.0000000000000000000, 0.0000000000000000000 ) ) ;
#104 = DIRECTION ( 'NONE',  ( 0.0000000000000000000, 0.0000000000000000000, 1.000000000000000000 ) ) ;
#105 = PERSON_AND_ORGANIZATION_ROLE ( 'design_supplier' ) ;
#106 = APPROVAL_DATE_TIME ( #154, #107 ) ;
#107 = APPROVAL ( #124, 'UNSPECIFIED' ) ;
#108 = APPLICATION_PROTOCOL_DEFINITION ( 'international standard', 'config_control_design', 1994, #212 ) ;
#109 = EDGE_LOOP ( 'NONE', ( #214, #73, #206, #42, #78 ) ) ;
#110 = LINE ( 'NONE', #102, #6 ) ;
#111 = PERSON ( 'UNSPECIFIED', 'UNSPECIFIED', 'UNSPECIFIED', ('UNSPECIFIED'), ('UNSPECIFIED'), ('UNSPECIFIED') ) ;
#112 = CLOSED_SHELL ( 'NONE', ( #44, #80, #118, #190, #221 ) ) ;
#113 = CC_DESIGN_PERSON_AND_ORGANIZATION_ASSIGNMENT ( #234, #148, ( #19 ) ) ;
#114 = CARTESIAN_POINT ( 'NONE',  ( 2.439174014615392300E-014, 2.146245091401767000, -0.08255999894603971400 ) ) ;
#115 = CARTESIAN_POINT ( 'NONE',  ( 2.588287764948948100E-014, -2.146245091401758600, -0.08255999894603922900 ) ) ;
#116 = CARTESIAN_POINT ( 'NONE',  ( 2.134040334610232600, 2.146245091401767400, -0.08255999894603909000 ) ) ;
#117 = EDGE_CURVE ( 'NONE', #220, #228, #88, .T. ) ;
#118 = ADVANCED_FACE ( 'NONE', ( #23 ), #135, .T. ) ;
#119 = ORIENTED_EDGE ( 'NONE', *, *, #196, .F. ) ;
#120 = CARTESIAN_POINT ( 'NONE',  ( -4.249719928997651900, -6.426050642185060700, 0.3284146652467706000 ) ) ;
#121 = CARTESIAN_POINT ( 'NONE',  ( -4.249719928997657300, 6.426050642185066100, 0.3284146652467706000 ) ) ;
#122 = AXIS2_PLACEMENT_3D ( 'NONE', #48, #171, #62 ) ;
#123 = DIRECTION ( 'NONE',  ( -0.0000000000000000000, -0.0000000000000000000, -1.000000000000000000 ) ) ;
#124 = APPROVAL_STATUS ( 'not_yet_approved' ) ;
#125 = APPROVAL_ROLE ( '' ) ;
#126 = EDGE_LOOP ( 'NONE', ( #70, #134, #20 ) ) ;
#127 = APPLICATION_PROTOCOL_DEFINITION ( 'international standard', 'config_control_design', 1994, #229 ) ;
#128 = PERSON_AND_ORGANIZATION ( #111, #231 ) ;
#129 = CC_DESIGN_PERSON_AND_ORGANIZATION_ASSIGNMENT ( #151, #230, ( #40 ) ) ;
#130 = PRODUCT_DEFINITION_SHAPE ( 'NONE', 'NONE',  #19 ) ;
#131 = EDGE_LOOP ( 'NONE', ( #13, #200, #149 ) ) ;
#132 = AXIS2_PLACEMENT_3D ( 'NONE', #97, #104, #197 ) ;
#133 = CYLINDRICAL_SURFACE ( 'NONE', #3, 6.349999999999999600 ) ;
#134 = ORIENTED_EDGE ( 'NONE', *, *, #155, .T. ) ;
#135 =( BOUNDED_SURFACE ( )  B_SPLINE_SURFACE ( 3, 3, ( 
 ( #43, #120, #28, #81 ),
 ( #83, #137, #45, #63 ),
 ( #79, #77, #98, #25 ),
 ( #192, #121, #175, #5 ) ),
 .UNSPECIFIED., .F., .F., .F. ) 
 B_SPLINE_SURFACE_WITH_KNOTS ( ( 4, 4 ),
 ( 4, 4 ),
 ( 0.0000000000000000000, 1.000000000000000000 ),
 ( 0.0000000000000000000, 1.000000000000000000 ),
 .UNSPECIFIED. ) 
 GEOMETRIC_REPRESENTATION_ITEM ( )  RATIONAL_B_SPLINE_SURFACE ( (
 ( 1.000000000000000000, 0.9995131295779148300, 0.9995131295779148300, 1.000000000000000000),
 ( 0.9980299497525477700, 0.9975440384896581100, 0.9975440384896581100, 0.9980299497525477700),
 ( 0.9980299497525477700, 0.9975440384896581100, 0.9975440384896581100, 0.9980299497525477700),
 ( 1.000000000000000000, 0.9995131295779148300, 0.9995131295779148300, 1.000000000000000000) ) ) 
 REPRESENTATION_ITEM ( '' )  SURFACE ( )  );
#136 = CARTESIAN_POINT ( 'NONE',  ( 6.349999999999999600, 1.221245327087670000E-015, 0.2413673532529370400 ) ) ;
#137 = CARTESIAN_POINT ( 'NONE',  ( -4.266522167542776200, -2.146245091401759500, -0.001016256353435500600 ) ) ;
#138 = SECURITY_CLASSIFICATION ( '', '', #198 ) ;
#139 = DIRECTION ( 'NONE',  ( 1.000000000000000000, 0.0000000000000000000, 0.0000000000000000000 ) ) ;
#140 =( LENGTH_UNIT ( ) NAMED_UNIT ( * ) SI_UNIT ( .MILLI., .METRE. ) );
#141 = COORDINATED_UNIVERSAL_TIME_OFFSET ( 2, 0, .AHEAD. ) ;
#142 = CALENDAR_DATE ( 2019, 2, 1 ) ;
#143 = DIRECTION ( 'NONE',  ( 1.000000000000000000, 0.0000000000000000000, 0.0000000000000000000 ) ) ;
#144 =( NAMED_UNIT ( * ) SI_UNIT ( $, .STERADIAN. ) SOLID_ANGLE_UNIT ( ) );
#145 = EDGE_LOOP ( 'NONE', ( #163, #84 ) ) ;
#146 = AXIS2_PLACEMENT_3D ( 'NONE', #176, #209, #205 ) ;
#147 = CARTESIAN_POINT ( 'NONE',  ( 2.498001805406600200E-016, 1.221245327087670000E-015, 0.2413673532529370400 ) ) ;
#148 = PERSON_AND_ORGANIZATION_ROLE ( 'creator' ) ;
#149 = ORIENTED_EDGE ( 'NONE', *, *, #59, .T. ) ;
#150 = LINE ( 'NONE', #136, #91 ) ;
#151 = PERSON_AND_ORGANIZATION ( #111, #231 ) ;
#152 = CC_DESIGN_DATE_AND_TIME_ASSIGNMENT ( #18, #157, ( #138 ) ) ;
#153 = CARTESIAN_POINT ( 'NONE',  ( 2.498001805406600200E-016, 1.221245327087670000E-015, 0.2413673532529370400 ) ) ;
#154 = DATE_AND_TIME ( #142, #10 ) ;
#155 = EDGE_CURVE ( 'NONE', #39, #68, #38, .T. ) ;
#156 = CARTESIAN_POINT ( 'NONE',  ( 2.498001805406600200E-016, 1.221245327087670000E-015, 0.2413673532529370400 ) ) ;
#157 = DATE_TIME_ROLE ( 'classification_date' ) ;
#158 = AXIS2_PLACEMENT_3D ( 'NONE', #204, #94, #57 ) ;
#159 = PERSON_AND_ORGANIZATION ( #111, #231 ) ;
#160 = ORIENTED_EDGE ( 'NONE', *, *, #35, .T. ) ;
#161 = EDGE_CURVE ( 'NONE', #33, #220, #110, .T. ) ;
#162 = CC_DESIGN_PERSON_AND_ORGANIZATION_ASSIGNMENT ( #101, #226, ( #41 ) ) ;
#163 = ORIENTED_EDGE ( 'NONE', *, *, #53, .F. ) ;
#164 = MANIFOLD_SOLID_BREP ( 'Imported1', #112 ) ;
#165 = AXIS2_PLACEMENT_3D ( 'NONE', #147, #215, #181 ) ;
#166 = CARTESIAN_POINT ( 'NONE',  ( 2.125636146524724400, -6.426050642185058100, 0.2471920547990620900 ) ) ;
#167 = VERTEX_POINT ( 'NONE', #207 ) ;
#168 = PERSON_AND_ORGANIZATION ( #111, #231 ) ;
#169 = AXIS2_PLACEMENT_3D ( 'NONE', #195, #65, #193 ) ;
#170 = CARTESIAN_POINT ( 'NONE',  ( 2.280601437157707700E-014, 6.426050642185066900, 0.2471920547990613700 ) ) ;
#171 = DIRECTION ( 'NONE',  ( 0.0000000000000000000, 0.0000000000000000000, 1.000000000000000000 ) ) ;
#172 = DIRECTION ( 'NONE',  ( 1.000000000000000000, 0.0000000000000000000, 0.0000000000000000000 ) ) ;
#173 = CARTESIAN_POINT ( 'NONE',  ( 2.498001805406600200E-016, 1.221245327087670000E-015, 0.2413673532529370400 ) ) ;
#174 = CC_DESIGN_SECURITY_CLASSIFICATION ( #138, ( #40 ) ) ;
#175 = CARTESIAN_POINT ( 'NONE',  ( -2.125636146524721300, 6.426050642185066900, 0.2471920547990719100 ) ) ;
#176 = CARTESIAN_POINT ( 'NONE',  ( 2.498001805406600200E-016, 1.221245327087670000E-015, 0.2413673532529370400 ) ) ;
#177 = EDGE_LOOP ( 'NONE', ( #37, #86, #119, #160, #89 ) ) ;
#178 = CC_DESIGN_APPROVAL ( #69, ( #19 ) ) ;
#179 = APPROVAL_ROLE ( '' ) ;
#180 = CALENDAR_DATE ( 2019, 2, 1 ) ;
#181 = DIRECTION ( 'NONE',  ( 1.000000000000000000, 0.0000000000000000000, 0.0000000000000000000 ) ) ;
#182 = CC_DESIGN_DATE_AND_TIME_ASSIGNMENT ( #31, #51, ( #19 ) ) ;
#183 = CIRCLE ( 'NONE', #158, 6.349999999999999600 ) ;
#184 = PRODUCT_RELATED_PRODUCT_CATEGORY ( 'detail', '', ( #41 ) ) ;
#185 = CARTESIAN_POINT ( 'NONE',  ( 2.283418169159999500E-014, 6.349999999999946400, 0.2413673532529350700 ) ) ;
#186 = DATE_AND_TIME ( #187, #17 ) ;
#187 = CALENDAR_DATE ( 2019, 2, 1 ) ;
#188 = CARTESIAN_POINT ( 'NONE',  ( 4.266522167542757600, -2.146245091401756300, -0.001016256353441002900 ) ) ;
#189 = CARTESIAN_POINT ( 'NONE',  ( 4.266522167542755800, 2.146245091401767900, -0.001016256353441517900 ) ) ;
#190 = ADVANCED_FACE ( 'NONE', ( #216 ), #218, .T. ) ;
#191 = EDGE_CURVE ( 'NONE', #39, #33, #47, .T. ) ;
#192 = CARTESIAN_POINT ( 'NONE',  ( -6.369148886715653800, 6.426050642185064300, 0.4907412514822823100 ) ) ;
#193 = DIRECTION ( 'NONE',  ( 1.000000000000000000, 0.0000000000000000000, 0.0000000000000000000 ) ) ;
#194 = COORDINATED_UNIVERSAL_TIME_OFFSET ( 2, 0, .AHEAD. ) ;
#195 = CARTESIAN_POINT ( 'NONE',  ( 2.498001805406600200E-016, 1.221245327087670000E-015, 2.200000000000000200 ) ) ;
#196 = EDGE_CURVE ( 'NONE', #167, #39, #46, .T. ) ;
#197 = DIRECTION ( 'NONE',  ( 1.000000000000000000, 0.0000000000000000000, 0.0000000000000000000 ) ) ;
#198 = SECURITY_CLASSIFICATION_LEVEL ( 'unclassified' ) ;
#199 = AXIS2_PLACEMENT_3D ( 'NONE', #173, #7, #103 ) ;
#200 = ORIENTED_EDGE ( 'NONE', *, *, #191, .T. ) ;
#201 = CARTESIAN_POINT ( 'NONE',  ( 2.724594397546687000E-014, -6.349999999999946400, 0.2413673532529350700 ) ) ;
#202 = CARTESIAN_POINT ( 'NONE',  ( 6.394330771807322100, 2.146245091401769200, 0.1619521251226273000 ) ) ;
#203 = APPROVAL_DATE_TIME ( #186, #69 ) ;
#204 = CARTESIAN_POINT ( 'NONE',  ( 2.498001805406600200E-016, 1.221245327087670000E-015, 2.200000000000000200 ) ) ;
#205 = DIRECTION ( 'NONE',  ( 1.000000000000000000, 0.0000000000000000000, 0.0000000000000000000 ) ) ;
#206 = ORIENTED_EDGE ( 'NONE', *, *, #117, .T. ) ;
#207 = CARTESIAN_POINT ( 'NONE',  ( 6.349999999999999600, 1.221245327087670000E-015, 0.2413673532529370400 ) ) ;
#208 = CARTESIAN_POINT ( 'NONE',  ( 6.349999999999999600, 1.221245327087670000E-015, 2.200000000000000200 ) ) ;
#209 = DIRECTION ( 'NONE',  ( -0.0000000000000000000, -0.0000000000000000000, -1.000000000000000000 ) ) ;
#210 = FACE_OUTER_BOUND ( 'NONE', #145, .T. ) ;
#211 = APPROVAL_DATE_TIME ( #34, #12 ) ;
#212 = APPLICATION_CONTEXT ( 'configuration controlled 3d designs of mechanical parts and assemblies' ) ;
#213 = AXIS2_PLACEMENT_3D ( 'NONE', #225, #123, #143 ) ;
#214 = ORIENTED_EDGE ( 'NONE', *, *, #59, .F. ) ;
#215 = DIRECTION ( 'NONE',  ( -0.0000000000000000000, -0.0000000000000000000, -1.000000000000000000 ) ) ;
#216 = FACE_OUTER_BOUND ( 'NONE', #177, .T. ) ;
#217 = CARTESIAN_POINT ( 'NONE',  ( 2.727061403416146400E-014, -6.426050642185058900, 0.2471920547990613700 ) ) ;
#218 = CYLINDRICAL_SURFACE ( 'NONE', #199, 6.349999999999999600 ) ;
#219 = CARTESIAN_POINT ( 'NONE',  ( 2.125636146524720400, 6.426050642185068700, 0.2471920547990620900 ) ) ;
#220 = VERTEX_POINT ( 'NONE', #29 ) ;
#221 = ADVANCED_FACE ( 'NONE', ( #210 ), #30, .T. ) ;
#222 = CC_DESIGN_PERSON_AND_ORGANIZATION_ASSIGNMENT ( #56, #105, ( #40 ) ) ;
#223 = DIRECTION ( 'NONE',  ( -0.0000000000000000000, -0.0000000000000000000, -1.000000000000000000 ) ) ;
#224 = CALENDAR_DATE ( 2019, 2, 1 ) ;
#225 = CARTESIAN_POINT ( 'NONE',  ( 2.498001805406600200E-016, 1.221245327087670000E-015, 0.2413673532529370400 ) ) ;
#226 = PERSON_AND_ORGANIZATION_ROLE ( 'design_owner' ) ;
#227 = EDGE_CURVE ( 'NONE', #68, #167, #75, .T. ) ;
#228 = VERTEX_POINT ( 'NONE', #208 ) ;
#229 = APPLICATION_CONTEXT ( 'configuration controlled 3d designs of mechanical parts and assemblies' ) ;
#230 = PERSON_AND_ORGANIZATION_ROLE ( 'creator' ) ;
#231 = ORGANIZATION ( 'UNSPECIFIED', 'UNSPECIFIED', '' ) ;
#232 = COORDINATED_UNIVERSAL_TIME_OFFSET ( 2, 0, .AHEAD. ) ;
#233 = CC_DESIGN_PERSON_AND_ORGANIZATION_ASSIGNMENT ( #96, #11, ( #138 ) ) ;
#234 = PERSON_AND_ORGANIZATION ( #111, #231 ) ;
#235 = LOCAL_TIME ( 14, 16, 0.0000000000000000000, #141 ) ;
ENDSEC;
END-ISO-10303-21;
