ISO-10303-21;
HEADER;
FILE_DESCRIPTION (( 'STEP AP203' ),
    '1' );
FILE_NAME ('110-5119E CaF2 pl-cx 12.7 F150.STEP',
    '2019-01-02T11:44:46',
    ( '' ),
    ( '' ),
    'SwSTEP 2.0',
    'SolidWorks 2017',
    '' );
FILE_SCHEMA (( 'CONFIG_CONTROL_DESIGN' ));
ENDSEC;

DATA;
#1 = DIRECTION ( 'NONE',  ( -0.0000000000000000000, -0.0000000000000000000, -1.000000000000000000 ) ) ;
#2 =( BOUNDED_SURFACE ( )  B_SPLINE_SURFACE ( 3, 3, ( 
 ( #96, #79, #185, #167 ),
 ( #119, #20, #80, #5 ),
 ( #9, #98, #135, #223 ),
 ( #3, #206, #59, #65 ) ),
 .UNSPECIFIED., .F., .F., .F. ) 
 B_SPLINE_SURFACE_WITH_KNOTS ( ( 4, 4 ),
 ( 4, 4 ),
 ( 0.0000000000000000000, 1.000000000000000000 ),
 ( 0.0000000000000000000, 1.000000000000000000 ),
 .UNSPECIFIED. ) 
 GEOMETRIC_REPRESENTATION_ITEM ( )  RATIONAL_B_SPLINE_SURFACE ( (
 ( 1.000000000000000000, 0.9991333024901590800, 0.9991333024901590800, 1.000000000000000000),
 ( 0.9964940501028906100, 0.9956303911910950900, 0.9956303911910950900, 0.9964940501028906100),
 ( 0.9964940501028906100, 0.9956303911910950900, 0.9956303911910950900, 0.9964940501028906100),
 ( 1.000000000000000000, 0.9991333024901590800, 0.9991333024901590800, 1.000000000000000000) ) ) 
 REPRESENTATION_ITEM ( '' )  SURFACE ( )  );
#3 = CARTESIAN_POINT ( 'NONE',  ( -6.354374346477840200, 6.425934018414836600, 0.6542778196483924900 ) ) ;
#4 = CC_DESIGN_PERSON_AND_ORGANIZATION_ASSIGNMENT ( #155, #187, ( #104 ) ) ;
#5 = CARTESIAN_POINT ( 'NONE',  ( -7.806255641895630300E-015, -2.149514094857986700, -0.1103685950367365300 ) ) ;
#6 = DATE_AND_TIME ( #71, #112 ) ;
#7 = EDGE_LOOP ( 'NONE', ( #209, #156, #231, #142, #60 ) ) ;
#8 = CARTESIAN_POINT ( 'NONE',  ( 2.122721784601182500, 6.425934018414836600, 0.3299449448169525200 ) ) ;
#9 = CARTESIAN_POINT ( 'NONE',  ( -6.399205536893857600, 2.149514094857978700, 0.2162525033202549700 ) ) ;
#10 =( LENGTH_UNIT ( ) NAMED_UNIT ( * ) SI_UNIT ( .MILLI., .METRE. ) );
#11 = EDGE_CURVE ( 'NONE', #44, #160, #233, .T. ) ;
#12 = COORDINATED_UNIVERSAL_TIME_OFFSET ( 2, 0, .AHEAD. ) ;
#13 = DATE_AND_TIME ( #76, #66 ) ;
#14 = MANIFOLD_SOLID_BREP ( 'Imported1', #151 ) ;
#15 = APPROVAL_DATE_TIME ( #27, #53 ) ;
#16 = ORIENTED_EDGE ( 'NONE', *, *, #33, .T. ) ;
#17 = CARTESIAN_POINT ( 'NONE',  ( 7.105427357601000300E-015, -6.349999999999980100, 0.3221732195040255500 ) ) ;
#18 = CARTESIAN_POINT ( 'NONE',  ( 7.105427357601000300E-015, 0.0000000000000000000, 62.74000000000000200 ) ) ;
#19 = CIRCLE ( 'NONE', #130, 6.349999999999999600 ) ;
#20 = CARTESIAN_POINT ( 'NONE',  ( -4.272616788514238100, -2.149514094857986300, -0.001400453167194179800 ) ) ;
#21 = VERTEX_POINT ( 'NONE', #196 ) ;
#22 = CARTESIAN_POINT ( 'NONE',  ( 6.354374346477859700, 6.425934018414836600, 0.6542778196483981500 ) ) ;
#23 = CARTESIAN_POINT ( 'NONE',  ( 2.498001805406600200E-016, 1.221245327087670000E-015, 0.3221732195040300000 ) ) ;
#24 = DIRECTION ( 'NONE',  ( -0.0000000000000000000, -0.0000000000000000000, -1.000000000000000000 ) ) ;
#25 = DIRECTION ( 'NONE',  ( 0.0000000000000000000, 0.0000000000000000000, 1.000000000000000000 ) ) ;
#26 = APPROVAL_STATUS ( 'not_yet_approved' ) ;
#27 = DATE_AND_TIME ( #78, #131 ) ;
#28 = ORIENTED_EDGE ( 'NONE', *, *, #55, .F. ) ;
#29 = EDGE_CURVE ( 'NONE', #160, #45, #126, .T. ) ;
#30 = CALENDAR_DATE ( 2019, 2, 1 ) ;
#31 = ORIENTED_EDGE ( 'NONE', *, *, #29, .F. ) ;
#32 = COORDINATED_UNIVERSAL_TIME_OFFSET ( 2, 0, .AHEAD. ) ;
#33 = EDGE_CURVE ( 'NONE', #44, #45, #177, .T. ) ;
#34 = EDGE_LOOP ( 'NONE', ( #31, #127, #101, #28, #146 ) ) ;
#35 = DESIGN_CONTEXT ( 'detailed design', #226, 'design' ) ;
#36 = FACE_OUTER_BOUND ( 'NONE', #159, .T. ) ;
#37 = CARTESIAN_POINT ( 'NONE',  ( 7.105427357601000300E-015, 6.349999999999981000, 0.3221732195040255500 ) ) ;
#38 = CARTESIAN_POINT ( 'NONE',  ( 6.354374346477859700, -6.425934018414844600, 0.6542778196483981500 ) ) ;
#39 =( GEOMETRIC_REPRESENTATION_CONTEXT ( 3 ) GLOBAL_UNCERTAINTY_ASSIGNED_CONTEXT ( ( #235 ) ) GLOBAL_UNIT_ASSIGNED_CONTEXT ( ( #10, #211, #49 ) ) REPRESENTATION_CONTEXT ( 'NONE', 'WORKASPACE' ) );
#40 = CARTESIAN_POINT ( 'NONE',  ( 7.105427357601000300E-015, 6.425934018414836600, 0.3299449448169525200 ) ) ;
#41 = CARTESIAN_POINT ( 'NONE',  ( 6.399205536893878100, 2.149514094857978700, 0.2162525033202607200 ) ) ;
#42 = PRODUCT_DEFINITION_SHAPE ( 'NONE', 'NONE',  #104 ) ;
#43 = ADVANCED_FACE ( 'NONE', ( #217 ), #180, .T. ) ;
#44 = VERTEX_POINT ( 'NONE', #17 ) ;
#45 = VERTEX_POINT ( 'NONE', #37 ) ;
#46 = APPROVAL_STATUS ( 'not_yet_approved' ) ;
#47 = ADVANCED_FACE ( 'NONE', ( #107 ), #192, .T. ) ;
#48 = APPLICATION_PROTOCOL_DEFINITION ( 'international standard', 'config_control_design', 1994, #226 ) ;
#49 =( NAMED_UNIT ( * ) SI_UNIT ( $, .STERADIAN. ) SOLID_ANGLE_UNIT ( ) );
#50 = DATE_AND_TIME ( #30, #145 ) ;
#51 = AXIS2_PLACEMENT_3D ( 'NONE', #23, #103, #166 ) ;
#52 = ADVANCED_BREP_SHAPE_REPRESENTATION ( '110-5119E CaF2 pl-cx 12.7 F150', ( #14, #63 ), #39 ) ;
#53 = APPROVAL ( #171, 'UNSPECIFIED' ) ;
#54 = EDGE_LOOP ( 'NONE', ( #183, #175 ) ) ;
#55 = EDGE_CURVE ( 'NONE', #204, #214, #89, .T. ) ;
#56 = LOCAL_TIME ( 13, 44, 46.00000000000000000, #114 ) ;
#57 = AXIS2_PLACEMENT_3D ( 'NONE', #191, #157, #111 ) ;
#58 = DIRECTION ( 'NONE',  ( 1.000000000000000000, 0.0000000000000000000, 0.0000000000000000000 ) ) ;
#59 = CARTESIAN_POINT ( 'NONE',  ( -2.122721784601176800, 6.425934018414836600, 0.3299449448169491400 ) ) ;
#60 = ORIENTED_EDGE ( 'NONE', *, *, #152, .T. ) ;
#61 = DIRECTION ( 'NONE',  ( 1.000000000000000000, 0.0000000000000000000, 0.0000000000000000000 ) ) ;
#62 = CARTESIAN_POINT ( 'NONE',  ( 2.122721784601182500, -6.425934018414844600, 0.3299449448169525200 ) ) ;
#63 = AXIS2_PLACEMENT_3D ( 'NONE', #229, #25, #88 ) ;
#64 = CARTESIAN_POINT ( 'NONE',  ( 4.272616788514251400, -2.149514094857986300, -0.001400453167189327600 ) ) ;
#65 = CARTESIAN_POINT ( 'NONE',  ( -7.806255641895631900E-015, 6.425934018414836600, 0.3299449448169486400 ) ) ;
#66 = LOCAL_TIME ( 13, 44, 46.00000000000000000, #230 ) ;
#67 = CC_DESIGN_APPROVAL ( #53, ( #117 ) ) ;
#68 = APPLICATION_CONTEXT ( 'configuration controlled 3d designs of mechanical parts and assemblies' ) ;
#69 = SECURITY_CLASSIFICATION_LEVEL ( 'unclassified' ) ;
#70 = APPROVAL ( #46, 'UNSPECIFIED' ) ;
#71 = CALENDAR_DATE ( 2019, 2, 1 ) ;
#72 = VECTOR ( 'NONE', #85, 1000.000000000000000 ) ;
#73 = CC_DESIGN_DATE_AND_TIME_ASSIGNMENT ( #6, #143, ( #158 ) ) ;
#74 = VECTOR ( 'NONE', #99, 1000.000000000000000 ) ;
#75 = CC_DESIGN_PERSON_AND_ORGANIZATION_ASSIGNMENT ( #132, #87, ( #115 ) ) ;
#76 = CALENDAR_DATE ( 2019, 2, 1 ) ;
#77 = CARTESIAN_POINT ( 'NONE',  ( 0.0000000000000000000, 13.15799999999999900, 2.299999999999999800 ) ) ;
#78 = CALENDAR_DATE ( 2019, 2, 1 ) ;
#79 = CARTESIAN_POINT ( 'NONE',  ( -4.242683932675146400, -6.425934018414844600, 0.4381496838719902700 ) ) ;
#80 = CARTESIAN_POINT ( 'NONE',  ( -2.137697947372958500, -2.149514094857986300, -0.1103685950367360400 ) ) ;
#81 = CARTESIAN_POINT ( 'NONE',  ( 2.498001805406600200E-016, 1.221245327087670000E-015, 2.299999999999999800 ) ) ;
#82 = PERSON_AND_ORGANIZATION ( #162, #174 ) ;
#83 = CARTESIAN_POINT ( 'NONE',  ( 2.137697947372964300, 2.149514094857978700, -0.1103685950367321000 ) ) ;
#84 = ADVANCED_FACE ( 'NONE', ( #163 ), #2, .T. ) ;
#85 = DIRECTION ( 'NONE',  ( 0.0000000000000000000, 0.0000000000000000000, 1.000000000000000000 ) ) ;
#86 = APPROVAL_PERSON_ORGANIZATION ( #227, #53, #225 ) ;
#87 = PERSON_AND_ORGANIZATION_ROLE ( 'design_owner' ) ;
#88 = DIRECTION ( 'NONE',  ( 1.000000000000000000, 0.0000000000000000000, 0.0000000000000000000 ) ) ;
#89 = LINE ( 'NONE', #221, #74 ) ;
#90 = AXIS2_PLACEMENT_3D ( 'NONE', #81, #224, #121 ) ;
#91 = CC_DESIGN_PERSON_AND_ORGANIZATION_ASSIGNMENT ( #94, #189, ( #117 ) ) ;
#92 = DATE_AND_TIME ( #141, #56 ) ;
#93 = CC_DESIGN_DATE_AND_TIME_ASSIGNMENT ( #92, #170, ( #104 ) ) ;
#94 = PERSON_AND_ORGANIZATION ( #162, #174 ) ;
#95 = CARTESIAN_POINT ( 'NONE',  ( 2.498001805406600200E-016, 1.221245327087670000E-015, 0.3221732195040300000 ) ) ;
#96 = CARTESIAN_POINT ( 'NONE',  ( -6.354374346477840200, -6.425934018414844600, 0.6542778196483924900 ) ) ;
#97 = EDGE_CURVE ( 'NONE', #21, #214, #181, .T. ) ;
#98 = CARTESIAN_POINT ( 'NONE',  ( -4.272616788514238100, 2.149514094857978700, -0.001400453167193637300 ) ) ;
#99 = DIRECTION ( 'NONE',  ( 0.0000000000000000000, 0.0000000000000000000, 1.000000000000000000 ) ) ;
#100 = DIRECTION ( 'NONE',  ( 1.000000000000000000, 0.0000000000000000000, 0.0000000000000000000 ) ) ;
#101 = ORIENTED_EDGE ( 'NONE', *, *, #97, .T. ) ;
#102 = CARTESIAN_POINT ( 'NONE',  ( 2.498001805406600200E-016, 1.221245327087670000E-015, 0.3221732195040300000 ) ) ;
#103 = DIRECTION ( 'NONE',  ( -0.0000000000000000000, -0.0000000000000000000, -1.000000000000000000 ) ) ;
#104 = PRODUCT_DEFINITION ( 'UNKNOWN', '', #117, #35 ) ;
#105 = CARTESIAN_POINT ( 'NONE',  ( 7.105427357601003400E-015, 2.149514094857978700, -0.1103685950367320900 ) ) ;
#106 = APPROVAL_PERSON_ORGANIZATION ( #201, #164, #128 ) ;
#107 = FACE_OUTER_BOUND ( 'NONE', #7, .T. ) ;
#108 = CC_DESIGN_PERSON_AND_ORGANIZATION_ASSIGNMENT ( #208, #138, ( #158 ) ) ;
#109 = CARTESIAN_POINT ( 'NONE',  ( -6.349999999999999600, 1.998896044546239400E-015, 0.3221732195040300000 ) ) ;
#110 = ADVANCED_FACE ( 'NONE', ( #36 ), #218, .T. ) ;
#111 = DIRECTION ( 'NONE',  ( 1.000000000000000000, -8.881784197001252300E-016, 0.0000000000000000000 ) ) ;
#112 = LOCAL_TIME ( 13, 44, 46.00000000000000000, #198 ) ;
#113 = ORIENTED_EDGE ( 'NONE', *, *, #11, .T. ) ;
#114 = COORDINATED_UNIVERSAL_TIME_OFFSET ( 2, 0, .AHEAD. ) ;
#115 = PRODUCT ( '110-5119E CaF2 pl-cx 12.7 F150', '110-5119E CaF2 pl-cx 12.7 F150', '', ( #139 ) ) ;
#116 = ORIENTED_EDGE ( 'NONE', *, *, #210, .T. ) ;
#117 = PRODUCT_DEFINITION_FORMATION_WITH_SPECIFIED_SOURCE ( 'ANY', '', #115, .NOT_KNOWN. ) ;
#118 = AXIS2_PLACEMENT_3D ( 'NONE', #102, #1, #200 ) ;
#119 = CARTESIAN_POINT ( 'NONE',  ( -6.399205536893857600, -2.149514094857986700, 0.2162525033202544500 ) ) ;
#120 = DIRECTION ( 'NONE',  ( 0.0000000000000000000, -1.000000000000000000, 0.0000000000000000000 ) ) ;
#121 = DIRECTION ( 'NONE',  ( 1.000000000000000000, 0.0000000000000000000, 0.0000000000000000000 ) ) ;
#122 = DIRECTION ( 'NONE',  ( 0.0000000000000000000, 0.0000000000000000000, 1.000000000000000000 ) ) ;
#123 = CARTESIAN_POINT ( 'NONE',  ( 4.242683932675159800, 6.425934018414836600, 0.4381496838719949900 ) ) ;
#124 = APPLICATION_PROTOCOL_DEFINITION ( 'international standard', 'config_control_design', 1994, #68 ) ;
#125 = APPROVAL_ROLE ( '' ) ;
#126 = CIRCLE ( 'NONE', #118, 6.349999999999999600 ) ;
#127 = ORIENTED_EDGE ( 'NONE', *, *, #234, .T. ) ;
#128 = APPROVAL_ROLE ( '' ) ;
#129 = APPROVAL_PERSON_ORGANIZATION ( #82, #70, #125 ) ;
#130 = AXIS2_PLACEMENT_3D ( 'NONE', #153, #24, #100 ) ;
#131 = LOCAL_TIME ( 13, 44, 46.00000000000000000, #32 ) ;
#132 = PERSON_AND_ORGANIZATION ( #162, #174 ) ;
#133 = CIRCLE ( 'NONE', #57, 6.349999999999999600 ) ;
#134 = CC_DESIGN_APPROVAL ( #70, ( #104 ) ) ;
#135 = CARTESIAN_POINT ( 'NONE',  ( -2.137697947372958500, 2.149514094857978700, -0.1103685950367355000 ) ) ;
#136 = CARTESIAN_POINT ( 'NONE',  ( 4.242683932675159800, -6.425934018414844600, 0.4381496838719949900 ) ) ;
#137 = CARTESIAN_POINT ( 'NONE',  ( 2.498001805406600200E-016, 1.221245327087670000E-015, 0.3221732195040300000 ) ) ;
#138 = PERSON_AND_ORGANIZATION_ROLE ( 'classification_officer' ) ;
#139 = MECHANICAL_CONTEXT ( 'NONE', #68, 'mechanical' ) ;
#140 = ADVANCED_FACE ( 'NONE', ( #213 ), #184, .T. ) ;
#141 = CALENDAR_DATE ( 2019, 2, 1 ) ;
#142 = ORIENTED_EDGE ( 'NONE', *, *, #55, .T. ) ;
#143 = DATE_TIME_ROLE ( 'classification_date' ) ;
#144 = LINE ( 'NONE', #109, #72 ) ;
#145 = LOCAL_TIME ( 13, 44, 46.00000000000000000, #12 ) ;
#146 = ORIENTED_EDGE ( 'NONE', *, *, #210, .F. ) ;
#147 = DIRECTION ( 'NONE',  ( 1.000000000000000000, 0.0000000000000000000, 0.0000000000000000000 ) ) ;
#148 = PERSON_AND_ORGANIZATION ( #162, #174 ) ;
#149 = EDGE_LOOP ( 'NONE', ( #215, #113, #194 ) ) ;
#150 = CARTESIAN_POINT ( 'NONE',  ( 6.349999999999999600, 1.221245327087670000E-015, 2.299999999999999800 ) ) ;
#151 = CLOSED_SHELL ( 'NONE', ( #110, #140, #84, #47, #43 ) ) ;
#152 = EDGE_CURVE ( 'NONE', #214, #21, #19, .T. ) ;
#153 = CARTESIAN_POINT ( 'NONE',  ( 2.498001805406600200E-016, 1.221245327087670000E-015, 2.299999999999999800 ) ) ;
#154 = CARTESIAN_POINT ( 'NONE',  ( -6.349999999999999600, 1.998896044546239400E-015, 0.3221732195040300000 ) ) ;
#155 = PERSON_AND_ORGANIZATION ( #162, #174 ) ;
#156 = ORIENTED_EDGE ( 'NONE', *, *, #11, .F. ) ;
#157 = DIRECTION ( 'NONE',  ( -0.0000000000000000000, -0.0000000000000000000, -1.000000000000000000 ) ) ;
#158 = SECURITY_CLASSIFICATION ( '', '', #69 ) ;
#159 = EDGE_LOOP ( 'NONE', ( #216, #16, #116 ) ) ;
#160 = VERTEX_POINT ( 'NONE', #154 ) ;
#161 = CC_DESIGN_PERSON_AND_ORGANIZATION_ASSIGNMENT ( #148, #212, ( #117 ) ) ;
#162 = PERSON ( 'UNSPECIFIED', 'UNSPECIFIED', 'UNSPECIFIED', ('UNSPECIFIED'), ('UNSPECIFIED'), ('UNSPECIFIED') ) ;
#163 = FACE_OUTER_BOUND ( 'NONE', #149, .T. ) ;
#164 = APPROVAL ( #26, 'UNSPECIFIED' ) ;
#165 = CARTESIAN_POINT ( 'NONE',  ( 7.105427357601003400E-015, -2.149514094857986700, -0.1103685950367326300 ) ) ;
#166 = DIRECTION ( 'NONE',  ( 1.000000000000000000, 0.0000000000000000000, 0.0000000000000000000 ) ) ;
#167 = CARTESIAN_POINT ( 'NONE',  ( -7.806255641895631900E-015, -6.425934018414844600, 0.3299449448169486400 ) ) ;
#168 = DIRECTION ( 'NONE',  ( 0.0000000000000000000, 0.0000000000000000000, 1.000000000000000000 ) ) ;
#169 = EDGE_CURVE ( 'NONE', #204, #44, #173, .T. ) ;
#170 = DATE_TIME_ROLE ( 'creation_date' ) ;
#171 = APPROVAL_STATUS ( 'not_yet_approved' ) ;
#172 = AXIS2_PLACEMENT_3D ( 'NONE', #77, #168, #179 ) ;
#173 = CIRCLE ( 'NONE', #51, 6.349999999999999600 ) ;
#174 = ORGANIZATION ( 'UNSPECIFIED', 'UNSPECIFIED', '' ) ;
#175 = ORIENTED_EDGE ( 'NONE', *, *, #97, .F. ) ;
#176 = CC_DESIGN_APPROVAL ( #164, ( #158 ) ) ;
#177 = CIRCLE ( 'NONE', #182, 62.74000000000000200 ) ;
#178 = CARTESIAN_POINT ( 'NONE',  ( 2.498001805406600200E-016, 1.221245327087670000E-015, 0.3221732195040300000 ) ) ;
#179 = DIRECTION ( 'NONE',  ( 1.000000000000000000, 0.0000000000000000000, -0.0000000000000000000 ) ) ;
#180 = PLANE ( 'NONE',  #172 ) ;
#181 = CIRCLE ( 'NONE', #90, 6.349999999999999600 ) ;
#182 = AXIS2_PLACEMENT_3D ( 'NONE', #18, #58, #120 ) ;
#183 = ORIENTED_EDGE ( 'NONE', *, *, #152, .F. ) ;
#184 = CYLINDRICAL_SURFACE ( 'NONE', #222, 6.349999999999999600 ) ;
#185 = CARTESIAN_POINT ( 'NONE',  ( -2.122721784601176800, -6.425934018414844600, 0.3299449448169491400 ) ) ;
#186 = CARTESIAN_POINT ( 'NONE',  ( 6.399205536893878100, -2.149514094857986700, 0.2162525033202602200 ) ) ;
#187 = PERSON_AND_ORGANIZATION_ROLE ( 'creator' ) ;
#188 = SHAPE_DEFINITION_REPRESENTATION ( #42, #52 ) ;
#189 = PERSON_AND_ORGANIZATION_ROLE ( 'design_supplier' ) ;
#190 = CC_DESIGN_SECURITY_CLASSIFICATION ( #158, ( #117 ) ) ;
#191 = CARTESIAN_POINT ( 'NONE',  ( 2.498001805406600200E-016, 1.221245327087670000E-015, 0.3221732195040300000 ) ) ;
#192 = CYLINDRICAL_SURFACE ( 'NONE', #193, 6.349999999999999600 ) ;
#193 = AXIS2_PLACEMENT_3D ( 'NONE', #95, #220, #147 ) ;
#194 = ORIENTED_EDGE ( 'NONE', *, *, #29, .T. ) ;
#195 = CARTESIAN_POINT ( 'NONE',  ( 7.105427357601000300E-015, -6.425934018414844600, 0.3299449448169525200 ) ) ;
#196 = CARTESIAN_POINT ( 'NONE',  ( -6.349999999999999600, 1.998896044546239400E-015, 2.299999999999999800 ) ) ;
#197 = DIRECTION ( 'NONE',  ( -0.0000000000000000000, -0.0000000000000000000, -1.000000000000000000 ) ) ;
#198 = COORDINATED_UNIVERSAL_TIME_OFFSET ( 2, 0, .AHEAD. ) ;
#199 = APPROVAL_DATE_TIME ( #13, #70 ) ;
#200 = DIRECTION ( 'NONE',  ( 1.000000000000000000, 0.0000000000000000000, 0.0000000000000000000 ) ) ;
#201 = PERSON_AND_ORGANIZATION ( #162, #174 ) ;
#202 = PRODUCT_RELATED_PRODUCT_CATEGORY ( 'detail', '', ( #115 ) ) ;
#203 = CARTESIAN_POINT ( 'NONE',  ( 2.137697947372964300, -2.149514094857986300, -0.1103685950367326400 ) ) ;
#204 = VERTEX_POINT ( 'NONE', #205 ) ;
#205 = CARTESIAN_POINT ( 'NONE',  ( 6.349999999999999600, 1.221245327087670000E-015, 0.3221732195040300000 ) ) ;
#206 = CARTESIAN_POINT ( 'NONE',  ( -4.242683932675146400, 6.425934018414836600, 0.4381496838719902700 ) ) ;
#207 = CARTESIAN_POINT ( 'NONE',  ( 4.272616788514251400, 2.149514094857978700, -0.001400453167188812800 ) ) ;
#208 = PERSON_AND_ORGANIZATION ( #162, #174 ) ;
#209 = ORIENTED_EDGE ( 'NONE', *, *, #234, .F. ) ;
#210 = EDGE_CURVE ( 'NONE', #45, #204, #133, .T. ) ;
#211 =( NAMED_UNIT ( * ) PLANE_ANGLE_UNIT ( ) SI_UNIT ( $, .RADIAN. ) );
#212 = PERSON_AND_ORGANIZATION_ROLE ( 'creator' ) ;
#213 = FACE_OUTER_BOUND ( 'NONE', #34, .T. ) ;
#214 = VERTEX_POINT ( 'NONE', #150 ) ;
#215 = ORIENTED_EDGE ( 'NONE', *, *, #33, .F. ) ;
#216 = ORIENTED_EDGE ( 'NONE', *, *, #169, .T. ) ;
#217 = FACE_OUTER_BOUND ( 'NONE', #54, .T. ) ;
#218 =( BOUNDED_SURFACE ( )  B_SPLINE_SURFACE ( 3, 3, ( 
 ( #195, #62, #136, #38 ),
 ( #165, #203, #64, #186 ),
 ( #105, #83, #207, #41 ),
 ( #40, #8, #123, #22 ) ),
 .UNSPECIFIED., .F., .F., .T. ) 
 B_SPLINE_SURFACE_WITH_KNOTS ( ( 4, 4 ),
 ( 4, 4 ),
 ( 0.0000000000000000000, 1.000000000000000000 ),
 ( 0.0000000000000000000, 1.000000000000000000 ),
 .UNSPECIFIED. ) 
 GEOMETRIC_REPRESENTATION_ITEM ( )  RATIONAL_B_SPLINE_SURFACE ( (
 ( 1.000000000000000000, 0.9991333024901590800, 0.9991333024901590800, 1.000000000000000000),
 ( 0.9964940501028906100, 0.9956303911910950900, 0.9956303911910950900, 0.9964940501028906100),
 ( 0.9964940501028906100, 0.9956303911910950900, 0.9956303911910950900, 0.9964940501028906100),
 ( 1.000000000000000000, 0.9991333024901590800, 0.9991333024901590800, 1.000000000000000000) ) ) 
 REPRESENTATION_ITEM ( '' )  SURFACE ( )  );
#219 = DIRECTION ( 'NONE',  ( 1.000000000000000000, 0.0000000000000000000, 0.0000000000000000000 ) ) ;
#220 = DIRECTION ( 'NONE',  ( 0.0000000000000000000, 0.0000000000000000000, 1.000000000000000000 ) ) ;
#221 = CARTESIAN_POINT ( 'NONE',  ( 6.349999999999999600, 1.221245327087670000E-015, 0.3221732195040300000 ) ) ;
#222 = AXIS2_PLACEMENT_3D ( 'NONE', #137, #122, #61 ) ;
#223 = CARTESIAN_POINT ( 'NONE',  ( -7.806255641895630300E-015, 2.149514094857978700, -0.1103685950367359900 ) ) ;
#224 = DIRECTION ( 'NONE',  ( -0.0000000000000000000, -0.0000000000000000000, -1.000000000000000000 ) ) ;
#225 = APPROVAL_ROLE ( '' ) ;
#226 = APPLICATION_CONTEXT ( 'configuration controlled 3d designs of mechanical parts and assemblies' ) ;
#227 = PERSON_AND_ORGANIZATION ( #162, #174 ) ;
#228 = AXIS2_PLACEMENT_3D ( 'NONE', #178, #197, #219 ) ;
#229 = CARTESIAN_POINT ( 'NONE',  ( 0.0000000000000000000, 0.0000000000000000000, 0.0000000000000000000 ) ) ;
#230 = COORDINATED_UNIVERSAL_TIME_OFFSET ( 2, 0, .AHEAD. ) ;
#231 = ORIENTED_EDGE ( 'NONE', *, *, #169, .F. ) ;
#232 = APPROVAL_DATE_TIME ( #50, #164 ) ;
#233 = CIRCLE ( 'NONE', #228, 6.349999999999999600 ) ;
#234 = EDGE_CURVE ( 'NONE', #160, #21, #144, .T. ) ;
#235 = UNCERTAINTY_MEASURE_WITH_UNIT (LENGTH_MEASURE( 1.000000000000000100E-005 ), #10, 'distance_accuracy_value', 'NONE');
ENDSEC;
END-ISO-10303-21;
