ISO-10303-21;
HEADER;
FILE_DESCRIPTION (( 'STEP AP203' ),
    '1' );
FILE_NAME ('110-5115E CaF2 pl-cx 12.7 F100.STEP',
    '2019-01-02T11:33:50',
    ( '' ),
    ( '' ),
    'SwSTEP 2.0',
    'SolidWorks 2017',
    '' );
FILE_SCHEMA (( 'CONFIG_CONTROL_DESIGN' ));
ENDSEC;

DATA;
#1 = CARTESIAN_POINT ( 'NONE',  ( 2.498001805406600200E-016, 1.221245327087670000E-015, 2.500000000000000000 ) ) ;
#2 = ORIENTED_EDGE ( 'NONE', *, *, #229, .F. ) ;
#3 = FACE_OUTER_BOUND ( 'NONE', #102, .T. ) ;
#4 = CARTESIAN_POINT ( 'NONE',  ( 4.222453701283442700, -6.425598535861984000, 0.6583852067618232200 ) ) ;
#5 = CARTESIAN_POINT ( 'NONE',  ( -7.105427357600998700E-015, 6.425598535861992000, 0.4964714371500991700 ) ) ;
#6 = LOCAL_TIME ( 13, 33, 50.00000000000000000, #95 ) ;
#7 = CARTESIAN_POINT ( 'NONE',  ( -7.105427357600998700E-015, -6.349999999999992500, 0.4847898783909916900 ) ) ;
#8 = CARTESIAN_POINT ( 'NONE',  ( -2.148260024735863600, 2.158948917834482700, -0.1668103704252344700 ) ) ;
#9 = CARTESIAN_POINT ( 'NONE',  ( -6.311986465879734000, 6.425598535861992900, 0.9812618271937343400 ) ) ;
#10 = CIRCLE ( 'NONE', #193, 6.349999999999999600 ) ;
#11 = ORIENTED_EDGE ( 'NONE', *, *, #229, .T. ) ;
#12 = CC_DESIGN_DATE_AND_TIME_ASSIGNMENT ( #79, #211, ( #223 ) ) ;
#13 = APPROVAL_STATUS ( 'not_yet_approved' ) ;
#14 = APPROVAL_ROLE ( '' ) ;
#15 = PERSON_AND_ORGANIZATION ( #139, #137 ) ;
#16 = CIRCLE ( 'NONE', #69, 6.349999999999999600 ) ;
#17 = UNCERTAINTY_MEASURE_WITH_UNIT (LENGTH_MEASURE( 1.000000000000000100E-005 ), #78, 'distance_accuracy_value', 'NONE');
#18 = EDGE_LOOP ( 'NONE', ( #169, #63, #57, #200, #144 ) ) ;
#19 = DIRECTION ( 'NONE',  ( 0.0000000000000000000, 0.0000000000000000000, 1.000000000000000000 ) ) ;
#20 = PRODUCT_DEFINITION_FORMATION_WITH_SPECIFIED_SOURCE ( 'ANY', '', #30, .NOT_KNOWN. ) ;
#21 = CLOSED_SHELL ( 'NONE', ( #140, #66, #198, #51, #162 ) ) ;
#22 = LOCAL_TIME ( 13, 33, 50.00000000000000000, #189 ) ;
#23 =( NAMED_UNIT ( * ) SI_UNIT ( $, .STERADIAN. ) SOLID_ANGLE_UNIT ( ) );
#24 = CARTESIAN_POINT ( 'NONE',  ( -2.114331214910057700, -6.425598535861984000, 0.4964714371501035600 ) ) ;
#25 = CARTESIAN_POINT ( 'NONE',  ( 4.222453701283443600, 6.425598535861992900, 0.6583852067618163300 ) ) ;
#26 = APPROVAL_ROLE ( '' ) ;
#27 = PERSON_AND_ORGANIZATION_ROLE ( 'creator' ) ;
#28 = DATE_AND_TIME ( #39, #6 ) ;
#29 = COORDINATED_UNIVERSAL_TIME_OFFSET ( 2, 0, .AHEAD. ) ;
#30 = PRODUCT ( '110-5115E CaF2 pl-cx 12.7 F100', '110-5115E CaF2 pl-cx 12.7 F100', '', ( #196 ) ) ;
#31 = ORIENTED_EDGE ( 'NONE', *, *, #122, .F. ) ;
#32 = APPROVAL ( #49, 'UNSPECIFIED' ) ;
#33 = LOCAL_TIME ( 13, 33, 50.00000000000000000, #164 ) ;
#34 = ORIENTED_EDGE ( 'NONE', *, *, #170, .T. ) ;
#35 = CARTESIAN_POINT ( 'NONE',  ( 6.349999999999999600, 1.221245327087670000E-015, 0.4847898783909920800 ) ) ;
#36 = CARTESIAN_POINT ( 'NONE',  ( 2.498001805406600200E-016, 1.221245327087670000E-015, 0.4847898783909920800 ) ) ;
#37 = CARTESIAN_POINT ( 'NONE',  ( 6.349999999999999600, 1.221245327087670000E-015, 2.500000000000000000 ) ) ;
#38 = APPROVAL_PERSON_ORGANIZATION ( #118, #32, #26 ) ;
#39 = CALENDAR_DATE ( 2019, 2, 1 ) ;
#40 = DIRECTION ( 'NONE',  ( -0.0000000000000000000, -0.0000000000000000000, -1.000000000000000000 ) ) ;
#41 = EDGE_CURVE ( 'NONE', #50, #120, #186, .T. ) ;
#42 = DIRECTION ( 'NONE',  ( 0.0000000000000000000, 0.0000000000000000000, 1.000000000000000000 ) ) ;
#43 = CARTESIAN_POINT ( 'NONE',  ( 6.413275321151658700, 2.158948917834483200, 0.3257594823786320600 ) ) ;
#44 = ADVANCED_BREP_SHAPE_REPRESENTATION ( '110-5115E CaF2 pl-cx 12.7 F100', ( #143, #103 ), #90 ) ;
#45 = CC_DESIGN_PERSON_AND_ORGANIZATION_ASSIGNMENT ( #145, #88, ( #184 ) ) ;
#46 = CARTESIAN_POINT ( 'NONE',  ( 4.290211689066458300, -2.158948917834475200, -0.002298360074973334600 ) ) ;
#47 = CALENDAR_DATE ( 2019, 2, 1 ) ;
#48 = AXIS2_PLACEMENT_3D ( 'NONE', #1, #222, #173 ) ;
#49 = APPROVAL_STATUS ( 'not_yet_approved' ) ;
#50 = VERTEX_POINT ( 'NONE', #129 ) ;
#51 = ADVANCED_FACE ( 'NONE', ( #71 ), #177, .T. ) ;
#52 = VERTEX_POINT ( 'NONE', #114 ) ;
#53 = EDGE_CURVE ( 'NONE', #220, #56, #183, .T. ) ;
#54 = CARTESIAN_POINT ( 'NONE',  ( 6.311986465879751800, -6.425598535861983200, 0.9812618271937473300 ) ) ;
#55 = PLANE ( 'NONE',  #141 ) ;
#56 = VERTEX_POINT ( 'NONE', #37 ) ;
#57 = ORIENTED_EDGE ( 'NONE', *, *, #77, .F. ) ;
#58 = DIRECTION ( 'NONE',  ( 1.000000000000000000, 0.0000000000000000000, 0.0000000000000000000 ) ) ;
#59 = AXIS2_PLACEMENT_3D ( 'NONE', #36, #111, #147 ) ;
#60 = CARTESIAN_POINT ( 'NONE',  ( 2.498001805406600200E-016, 1.221245327087670000E-015, 2.500000000000000000 ) ) ;
#61 = CARTESIAN_POINT ( 'NONE',  ( -2.148260024735864100, -2.158948917834474700, -0.1668103704252280100 ) ) ;
#62 = CYLINDRICAL_SURFACE ( 'NONE', #72, 6.349999999999999600 ) ;
#63 = ORIENTED_EDGE ( 'NONE', *, *, #107, .F. ) ;
#64 = CARTESIAN_POINT ( 'NONE',  ( 4.290211689066458300, 2.158948917834482300, -0.002298360074979731400 ) ) ;
#65 = EDGE_CURVE ( 'NONE', #52, #56, #210, .T. ) ;
#66 = ADVANCED_FACE ( 'NONE', ( #165 ), #62, .T. ) ;
#67 = PERSON_AND_ORGANIZATION ( #139, #137 ) ;
#68 = APPLICATION_CONTEXT ( 'configuration controlled 3d designs of mechanical parts and assemblies' ) ;
#69 = AXIS2_PLACEMENT_3D ( 'NONE', #188, #40, #76 ) ;
#70 =( BOUNDED_SURFACE ( )  B_SPLINE_SURFACE ( 3, 3, ( 
 ( #119, #204, #24, #80 ),
 ( #176, #132, #61, #206 ),
 ( #224, #225, #8, #134 ),
 ( #9, #156, #152, #226 ) ),
 .UNSPECIFIED., .F., .F., .F. ) 
 B_SPLINE_SURFACE_WITH_KNOTS ( ( 4, 4 ),
 ( 4, 4 ),
 ( 0.0000000000000000000, 1.000000000000000000 ),
 ( 0.0000000000000000000, 1.000000000000000000 ),
 .UNSPECIFIED. ) 
 GEOMETRIC_REPRESENTATION_ITEM ( )  RATIONAL_B_SPLINE_SURFACE ( (
 ( 1.000000000000000000, 0.9980423349338160000, 0.9980423349338160000, 1.000000000000000000),
 ( 0.9920874741070984100, 0.9901452991164402300, 0.9901452991164402300, 0.9920874741070984100),
 ( 0.9920874741070984100, 0.9901452991164402300, 0.9901452991164402300, 0.9920874741070984100),
 ( 1.000000000000000000, 0.9980423349338160000, 0.9980423349338160000, 1.000000000000000000) ) ) 
 REPRESENTATION_ITEM ( '' )  SURFACE ( )  );
#71 = FACE_OUTER_BOUND ( 'NONE', #18, .T. ) ;
#72 = AXIS2_PLACEMENT_3D ( 'NONE', #172, #174, #58 ) ;
#73 = PERSON_AND_ORGANIZATION ( #139, #137 ) ;
#74 = DATE_AND_TIME ( #201, #33 ) ;
#75 = EDGE_LOOP ( 'NONE', ( #112, #233, #11 ) ) ;
#76 = DIRECTION ( 'NONE',  ( 1.000000000000000000, 0.0000000000000000000, 0.0000000000000000000 ) ) ;
#77 = EDGE_CURVE ( 'NONE', #52, #216, #16, .T. ) ;
#78 =( LENGTH_UNIT ( ) NAMED_UNIT ( * ) SI_UNIT ( .MILLI., .METRE. ) );
#79 = DATE_AND_TIME ( #234, #195 ) ;
#80 = CARTESIAN_POINT ( 'NONE',  ( -1.647987302177966700E-014, -6.425598535861983200, 0.4964714371501030600 ) ) ;
#81 = DIRECTION ( 'NONE',  ( 1.000000000000000000, 0.0000000000000000000, -0.0000000000000000000 ) ) ;
#82 = CARTESIAN_POINT ( 'NONE',  ( -7.105427357601000300E-015, 7.105427357601000300E-015, 41.82999999999999800 ) ) ;
#83 = ORIENTED_EDGE ( 'NONE', *, *, #175, .F. ) ;
#84 = CARTESIAN_POINT ( 'NONE',  ( 0.0000000000000000000, 0.0000000000000000000, 0.0000000000000000000 ) ) ;
#85 = APPROVAL_ROLE ( '' ) ;
#86 = APPLICATION_CONTEXT ( 'configuration controlled 3d designs of mechanical parts and assemblies' ) ;
#87 = CIRCLE ( 'NONE', #168, 41.82999999999999800 ) ;
#88 = PERSON_AND_ORGANIZATION_ROLE ( 'classification_officer' ) ;
#89 = CC_DESIGN_PERSON_AND_ORGANIZATION_ASSIGNMENT ( #91, #213, ( #20 ) ) ;
#90 =( GEOMETRIC_REPRESENTATION_CONTEXT ( 3 ) GLOBAL_UNCERTAINTY_ASSIGNED_CONTEXT ( ( #17 ) ) GLOBAL_UNIT_ASSIGNED_CONTEXT ( ( #78, #116, #23 ) ) REPRESENTATION_CONTEXT ( 'NONE', 'WORKASPACE' ) );
#91 = PERSON_AND_ORGANIZATION ( #139, #137 ) ;
#92 = CIRCLE ( 'NONE', #212, 6.349999999999999600 ) ;
#93 = AXIS2_PLACEMENT_3D ( 'NONE', #221, #203, #94 ) ;
#94 = DIRECTION ( 'NONE',  ( 1.000000000000000000, 0.0000000000000000000, 0.0000000000000000000 ) ) ;
#95 = COORDINATED_UNIVERSAL_TIME_OFFSET ( 2, 0, .AHEAD. ) ;
#96 = APPROVAL ( #13, 'UNSPECIFIED' ) ;
#97 = VECTOR ( 'NONE', #180, 1000.000000000000000 ) ;
#98 = CARTESIAN_POINT ( 'NONE',  ( 6.413275321151658700, -2.158948917834474300, 0.3257594823786385000 ) ) ;
#99 = CARTESIAN_POINT ( 'NONE',  ( 2.114331214910047900, 6.425598535861992900, 0.4964714371500991700 ) ) ;
#100 = CARTESIAN_POINT ( 'NONE',  ( 2.498001805406600200E-016, 1.221245327087670000E-015, 0.4847898783909920800 ) ) ;
#101 = DIRECTION ( 'NONE',  ( 1.000000000000000000, 0.0000000000000000000, 0.0000000000000000000 ) ) ;
#102 = EDGE_LOOP ( 'NONE', ( #83, #148, #117 ) ) ;
#103 = AXIS2_PLACEMENT_3D ( 'NONE', #84, #136, #101 ) ;
#104 = APPROVAL_STATUS ( 'not_yet_approved' ) ;
#105 = EDGE_LOOP ( 'NONE', ( #31, #133 ) ) ;
#106 = CALENDAR_DATE ( 2019, 2, 1 ) ;
#107 = EDGE_CURVE ( 'NONE', #216, #50, #128, .T. ) ;
#108 = CC_DESIGN_APPROVAL ( #96, ( #223 ) ) ;
#109 = CC_DESIGN_APPROVAL ( #32, ( #20 ) ) ;
#110 = ORIENTED_EDGE ( 'NONE', *, *, #65, .F. ) ;
#111 = DIRECTION ( 'NONE',  ( 0.0000000000000000000, 0.0000000000000000000, 1.000000000000000000 ) ) ;
#112 = ORIENTED_EDGE ( 'NONE', *, *, #77, .T. ) ;
#113 = EDGE_LOOP ( 'NONE', ( #227, #34, #159, #110, #2 ) ) ;
#114 = CARTESIAN_POINT ( 'NONE',  ( 6.349999999999999600, 1.221245327087670000E-015, 0.4847898783909920800 ) ) ;
#115 = CARTESIAN_POINT ( 'NONE',  ( -7.105427357600998700E-015, -6.425598535861983200, 0.4964714371501061100 ) ) ;
#116 =( NAMED_UNIT ( * ) PLANE_ANGLE_UNIT ( ) SI_UNIT ( $, .RADIAN. ) );
#117 = ORIENTED_EDGE ( 'NONE', *, *, #41, .T. ) ;
#118 = PERSON_AND_ORGANIZATION ( #139, #137 ) ;
#119 = CARTESIAN_POINT ( 'NONE',  ( -6.311986465879734900, -6.425598535861982300, 0.9812618271937412200 ) ) ;
#120 = VERTEX_POINT ( 'NONE', #150 ) ;
#121 = APPLICATION_PROTOCOL_DEFINITION ( 'international standard', 'config_control_design', 1994, #86 ) ;
#122 = EDGE_CURVE ( 'NONE', #56, #220, #10, .T. ) ;
#123 = APPROVAL_PERSON_ORGANIZATION ( #73, #96, #14 ) ;
#124 = VECTOR ( 'NONE', #19, 1000.000000000000000 ) ;
#125 = DATE_AND_TIME ( #106, #22 ) ;
#126 = PERSON_AND_ORGANIZATION ( #139, #137 ) ;
#127 = PRODUCT_DEFINITION_SHAPE ( 'NONE', 'NONE',  #223 ) ;
#128 = CIRCLE ( 'NONE', #185, 6.349999999999999600 ) ;
#129 = CARTESIAN_POINT ( 'NONE',  ( -6.349999999999999600, 1.998896044546239400E-015, 0.4847898783909920800 ) ) ;
#130 = CARTESIAN_POINT ( 'NONE',  ( 6.311986465879751800, 6.425598535861992000, 0.9812618271937403300 ) ) ;
#131 = CARTESIAN_POINT ( 'NONE',  ( -7.105427357600998700E-015, 2.158948917834482700, -0.1668103704252319200 ) ) ;
#132 = CARTESIAN_POINT ( 'NONE',  ( -4.290211689066454800, -2.158948917834474700, -0.002298360074975774000 ) ) ;
#133 = ORIENTED_EDGE ( 'NONE', *, *, #53, .F. ) ;
#134 = CARTESIAN_POINT ( 'NONE',  ( -1.647987302177966400E-014, 2.158948917834483200, -0.1668103704252349400 ) ) ;
#135 = CC_DESIGN_APPROVAL ( #179, ( #184 ) ) ;
#136 = DIRECTION ( 'NONE',  ( 0.0000000000000000000, 0.0000000000000000000, 1.000000000000000000 ) ) ;
#137 = ORGANIZATION ( 'UNSPECIFIED', 'UNSPECIFIED', '' ) ;
#138 = APPROVAL_DATE_TIME ( #235, #179 ) ;
#139 = PERSON ( 'UNSPECIFIED', 'UNSPECIFIED', 'UNSPECIFIED', ('UNSPECIFIED'), ('UNSPECIFIED'), ('UNSPECIFIED') ) ;
#140 = ADVANCED_FACE ( 'NONE', ( #158 ), #161, .T. ) ;
#141 = AXIS2_PLACEMENT_3D ( 'NONE', #192, #42, #81 ) ;
#142 = APPROVAL_DATE_TIME ( #74, #32 ) ;
#143 = MANIFOLD_SOLID_BREP ( 'Imported1', #21 ) ;
#144 = ORIENTED_EDGE ( 'NONE', *, *, #122, .T. ) ;
#145 = PERSON_AND_ORGANIZATION ( #139, #137 ) ;
#146 = CARTESIAN_POINT ( 'NONE',  ( 2.498001805406600200E-016, 1.221245327087670000E-015, 0.4847898783909920800 ) ) ;
#147 = DIRECTION ( 'NONE',  ( 1.000000000000000000, 0.0000000000000000000, 0.0000000000000000000 ) ) ;
#148 = ORIENTED_EDGE ( 'NONE', *, *, #107, .T. ) ;
#149 = CC_DESIGN_PERSON_AND_ORGANIZATION_ASSIGNMENT ( #126, #230, ( #30 ) ) ;
#150 = CARTESIAN_POINT ( 'NONE',  ( -7.105427357600998700E-015, 6.350000000000000500, 0.4847898783909916900 ) ) ;
#151 = CARTESIAN_POINT ( 'NONE',  ( 2.114331214910048400, -6.425598535861984000, 0.4964714371501061100 ) ) ;
#152 = CARTESIAN_POINT ( 'NONE',  ( -2.114331214910057300, 6.425598535861992900, 0.4964714371500968900 ) ) ;
#153 = PERSON_AND_ORGANIZATION ( #139, #137 ) ;
#154 = CARTESIAN_POINT ( 'NONE',  ( 2.148260024735854800, 2.158948917834482300, -0.1668103704252319200 ) ) ;
#155 = CARTESIAN_POINT ( 'NONE',  ( -7.105427357600998700E-015, -2.158948917834474700, -0.1668103704252255300 ) ) ;
#156 = CARTESIAN_POINT ( 'NONE',  ( -4.222453701283439100, 6.425598535861993800, 0.6583852067618138900 ) ) ;
#157 = CARTESIAN_POINT ( 'NONE',  ( -6.349999999999999600, 1.998896044546239400E-015, 0.4847898783909920800 ) ) ;
#158 = FACE_OUTER_BOUND ( 'NONE', #75, .T. ) ;
#159 = ORIENTED_EDGE ( 'NONE', *, *, #53, .T. ) ;
#160 = PERSON_AND_ORGANIZATION_ROLE ( 'design_supplier' ) ;
#161 =( BOUNDED_SURFACE ( )  B_SPLINE_SURFACE ( 3, 3, ( 
 ( #115, #151, #4, #54 ),
 ( #155, #205, #46, #98 ),
 ( #131, #154, #64, #43 ),
 ( #5, #99, #25, #130 ) ),
 .UNSPECIFIED., .F., .F., .F. ) 
 B_SPLINE_SURFACE_WITH_KNOTS ( ( 4, 4 ),
 ( 4, 4 ),
 ( 0.0000000000000000000, 1.000000000000000000 ),
 ( 0.0000000000000000000, 1.000000000000000000 ),
 .UNSPECIFIED. ) 
 GEOMETRIC_REPRESENTATION_ITEM ( )  RATIONAL_B_SPLINE_SURFACE ( (
 ( 1.000000000000000000, 0.9980423349338160000, 0.9980423349338160000, 1.000000000000000000),
 ( 0.9920874741070984100, 0.9901452991164402300, 0.9901452991164402300, 0.9920874741070984100),
 ( 0.9920874741070984100, 0.9901452991164402300, 0.9901452991164402300, 0.9920874741070984100),
 ( 1.000000000000000000, 0.9980423349338160000, 0.9980423349338160000, 1.000000000000000000) ) ) 
 REPRESENTATION_ITEM ( '' )  SURFACE ( )  );
#162 = ADVANCED_FACE ( 'NONE', ( #218 ), #55, .T. ) ;
#163 = APPLICATION_PROTOCOL_DEFINITION ( 'international standard', 'config_control_design', 1994, #68 ) ;
#164 = COORDINATED_UNIVERSAL_TIME_OFFSET ( 2, 0, .AHEAD. ) ;
#165 = FACE_OUTER_BOUND ( 'NONE', #113, .T. ) ;
#166 = CC_DESIGN_PERSON_AND_ORGANIZATION_ASSIGNMENT ( #153, #27, ( #223 ) ) ;
#167 = APPROVAL_DATE_TIME ( #125, #96 ) ;
#168 = AXIS2_PLACEMENT_3D ( 'NONE', #82, #209, #208 ) ;
#169 = ORIENTED_EDGE ( 'NONE', *, *, #170, .F. ) ;
#170 = EDGE_CURVE ( 'NONE', #50, #220, #181, .T. ) ;
#171 = DIRECTION ( 'NONE',  ( -0.0000000000000000000, -0.0000000000000000000, -1.000000000000000000 ) ) ;
#172 = CARTESIAN_POINT ( 'NONE',  ( 2.498001805406600200E-016, 1.221245327087670000E-015, 0.4847898783909920800 ) ) ;
#173 = DIRECTION ( 'NONE',  ( 1.000000000000000000, 0.0000000000000000000, 0.0000000000000000000 ) ) ;
#174 = DIRECTION ( 'NONE',  ( 0.0000000000000000000, 0.0000000000000000000, 1.000000000000000000 ) ) ;
#175 = EDGE_CURVE ( 'NONE', #216, #120, #87, .T. ) ;
#176 = CARTESIAN_POINT ( 'NONE',  ( -6.413275321151640900, -2.158948917834473800, 0.3257594823786322800 ) ) ;
#177 = CYLINDRICAL_SURFACE ( 'NONE', #59, 6.349999999999999600 ) ;
#178 = CARTESIAN_POINT ( 'NONE',  ( -6.349999999999999600, 1.998896044546239400E-015, 2.500000000000000000 ) ) ;
#179 = APPROVAL ( #104, 'UNSPECIFIED' ) ;
#180 = DIRECTION ( 'NONE',  ( 0.0000000000000000000, 0.0000000000000000000, 1.000000000000000000 ) ) ;
#181 = LINE ( 'NONE', #157, #97 ) ;
#182 = DATE_TIME_ROLE ( 'classification_date' ) ;
#183 = CIRCLE ( 'NONE', #48, 6.349999999999999600 ) ;
#184 = SECURITY_CLASSIFICATION ( '', '', #214 ) ;
#185 = AXIS2_PLACEMENT_3D ( 'NONE', #146, #171, #202 ) ;
#186 = CIRCLE ( 'NONE', #93, 6.349999999999999600 ) ;
#187 = LOCAL_TIME ( 13, 33, 50.00000000000000000, #29 ) ;
#188 = CARTESIAN_POINT ( 'NONE',  ( 2.498001805406600200E-016, 1.221245327087670000E-015, 0.4847898783909920800 ) ) ;
#189 = COORDINATED_UNIVERSAL_TIME_OFFSET ( 2, 0, .AHEAD. ) ;
#190 = DIRECTION ( 'NONE',  ( -0.0000000000000000000, -0.0000000000000000000, -1.000000000000000000 ) ) ;
#191 = DIRECTION ( 'NONE',  ( -0.0000000000000000000, -0.0000000000000000000, -1.000000000000000000 ) ) ;
#192 = CARTESIAN_POINT ( 'NONE',  ( 0.0000000000000000000, 13.15799999999999900, 2.500000000000000000 ) ) ;
#193 = AXIS2_PLACEMENT_3D ( 'NONE', #60, #190, #219 ) ;
#194 = PRODUCT_RELATED_PRODUCT_CATEGORY ( 'detail', '', ( #30 ) ) ;
#195 = LOCAL_TIME ( 13, 33, 50.00000000000000000, #215 ) ;
#196 = MECHANICAL_CONTEXT ( 'NONE', #68, 'mechanical' ) ;
#197 = APPROVAL_PERSON_ORGANIZATION ( #67, #179, #85 ) ;
#198 = ADVANCED_FACE ( 'NONE', ( #3 ), #70, .T. ) ;
#199 = CC_DESIGN_PERSON_AND_ORGANIZATION_ASSIGNMENT ( #15, #160, ( #20 ) ) ;
#200 = ORIENTED_EDGE ( 'NONE', *, *, #65, .T. ) ;
#201 = CALENDAR_DATE ( 2019, 2, 1 ) ;
#202 = DIRECTION ( 'NONE',  ( 1.000000000000000000, 0.0000000000000000000, 0.0000000000000000000 ) ) ;
#203 = DIRECTION ( 'NONE',  ( -0.0000000000000000000, -0.0000000000000000000, -1.000000000000000000 ) ) ;
#204 = CARTESIAN_POINT ( 'NONE',  ( -4.222453701283440000, -6.425598535861983200, 0.6583852067618207700 ) ) ;
#205 = CARTESIAN_POINT ( 'NONE',  ( 2.148260024735854800, -2.158948917834475200, -0.1668103704252255100 ) ) ;
#206 = CARTESIAN_POINT ( 'NONE',  ( -1.734723475976806800E-014, -2.158948917834474300, -0.1668103704252285600 ) ) ;
#207 = CC_DESIGN_SECURITY_CLASSIFICATION ( #184, ( #20 ) ) ;
#208 = DIRECTION ( 'NONE',  ( 0.0000000000000000000, -1.000000000000000000, 6.635327663310761200E-016 ) ) ;
#209 = DIRECTION ( 'NONE',  ( 1.000000000000000000, 0.0000000000000000000, 0.0000000000000000000 ) ) ;
#210 = LINE ( 'NONE', #35, #124 ) ;
#211 = DATE_TIME_ROLE ( 'creation_date' ) ;
#212 = AXIS2_PLACEMENT_3D ( 'NONE', #100, #191, #228 ) ;
#213 = PERSON_AND_ORGANIZATION_ROLE ( 'creator' ) ;
#214 = SECURITY_CLASSIFICATION_LEVEL ( 'unclassified' ) ;
#215 = COORDINATED_UNIVERSAL_TIME_OFFSET ( 2, 0, .AHEAD. ) ;
#216 = VERTEX_POINT ( 'NONE', #7 ) ;
#217 = CC_DESIGN_DATE_AND_TIME_ASSIGNMENT ( #28, #182, ( #184 ) ) ;
#218 = FACE_OUTER_BOUND ( 'NONE', #105, .T. ) ;
#219 = DIRECTION ( 'NONE',  ( 1.000000000000000000, 0.0000000000000000000, 0.0000000000000000000 ) ) ;
#220 = VERTEX_POINT ( 'NONE', #178 ) ;
#221 = CARTESIAN_POINT ( 'NONE',  ( 2.498001805406600200E-016, 1.221245327087670000E-015, 0.4847898783909920800 ) ) ;
#222 = DIRECTION ( 'NONE',  ( -0.0000000000000000000, -0.0000000000000000000, -1.000000000000000000 ) ) ;
#223 = PRODUCT_DEFINITION ( 'UNKNOWN', '', #20, #232 ) ;
#224 = CARTESIAN_POINT ( 'NONE',  ( -6.413275321151640900, 2.158948917834483600, 0.3257594823786259000 ) ) ;
#225 = CARTESIAN_POINT ( 'NONE',  ( -4.290211689066453900, 2.158948917834482700, -0.002298360074982169900 ) ) ;
#226 = CARTESIAN_POINT ( 'NONE',  ( -1.647987302177966700E-014, 6.425598535861992000, 0.4964714371500964500 ) ) ;
#227 = ORIENTED_EDGE ( 'NONE', *, *, #41, .F. ) ;
#228 = DIRECTION ( 'NONE',  ( 1.000000000000000000, 8.881784197001252300E-016, 0.0000000000000000000 ) ) ;
#229 = EDGE_CURVE ( 'NONE', #120, #52, #92, .T. ) ;
#230 = PERSON_AND_ORGANIZATION_ROLE ( 'design_owner' ) ;
#231 = SHAPE_DEFINITION_REPRESENTATION ( #127, #44 ) ;
#232 = DESIGN_CONTEXT ( 'detailed design', #86, 'design' ) ;
#233 = ORIENTED_EDGE ( 'NONE', *, *, #175, .T. ) ;
#234 = CALENDAR_DATE ( 2019, 2, 1 ) ;
#235 = DATE_AND_TIME ( #47, #187 ) ;
ENDSEC;
END-ISO-10303-21;
