ISO-10303-21;
HEADER;
FILE_DESCRIPTION (( 'STEP AP203' ),
    '1' );
FILE_NAME ('110-5111E CaF2 pl-cx 12.7 F75.STEP',
    '2019-01-02T11:33:27',
    ( '' ),
    ( '' ),
    'SwSTEP 2.0',
    'SolidWorks 2017',
    '' );
FILE_SCHEMA (( 'CONFIG_CONTROL_DESIGN' ));
ENDSEC;

DATA;
#1 = ORIENTED_EDGE ( 'NONE', *, *, #55, .F. ) ;
#2 = APPROVAL_PERSON_ORGANIZATION ( #109, #231, #146 ) ;
#3 = VERTEX_POINT ( 'NONE', #222 ) ;
#4 = EDGE_CURVE ( 'NONE', #193, #3, #35, .T. ) ;
#5 = ADVANCED_FACE ( 'NONE', ( #147 ), #181, .T. ) ;
#6 = ORIENTED_EDGE ( 'NONE', *, *, #84, .T. ) ;
#7 = PRODUCT ( '110-5111E CaF2 pl-cx 12.7 F75', '110-5111E CaF2 pl-cx 12.7 F75', '', ( #50 ) ) ;
#8 = CALENDAR_DATE ( 2019, 2, 1 ) ;
#9 = CARTESIAN_POINT ( 'NONE',  ( -4.336808689942017700E-015, -6.425122697294034100, 0.6650378875870089900 ) ) ;
#10 = AXIS2_PLACEMENT_3D ( 'NONE', #172, #77, #36 ) ;
#11 = CARTESIAN_POINT ( 'NONE',  ( 3.552713678800499400E-015, 6.425122697294037600, 0.6650378875870145400 ) ) ;
#12 = CARTESIAN_POINT ( 'NONE',  ( -6.252150968329037700, 6.425122697294037600, 1.308308321154992600 ) ) ;
#13 = PERSON_AND_ORGANIZATION_ROLE ( 'design_supplier' ) ;
#14 = PERSON_AND_ORGANIZATION ( #186, #149 ) ;
#15 = AXIS2_PLACEMENT_3D ( 'NONE', #37, #224, #54 ) ;
#16 = CLOSED_SHELL ( 'NONE', ( #190, #57, #116, #5, #21 ) ) ;
#17 = LOCAL_TIME ( 13, 33, 27.00000000000000000, #107 ) ;
#18 = DATE_AND_TIME ( #185, #169 ) ;
#19 = ORIENTED_EDGE ( 'NONE', *, *, #145, .F. ) ;
#20 = AXIS2_PLACEMENT_3D ( 'NONE', #170, #113, #187 ) ;
#21 = ADVANCED_FACE ( 'NONE', ( #216 ), #137, .T. ) ;
#22 = CARTESIAN_POINT ( 'NONE',  ( 0.0000000000000000000, 13.15799999999999900, 2.600000000000000500 ) ) ;
#23 = CARTESIAN_POINT ( 'NONE',  ( -2.102412335341612900, 6.425122697294036700, 0.6650378875870132100 ) ) ;
#24 = APPROVAL ( #105, 'UNSPECIFIED' ) ;
#25 = CARTESIAN_POINT ( 'NONE',  ( -4.193784272566548000, -6.425122697294033200, 0.8802146706854110400 ) ) ;
#26 = ORIENTED_EDGE ( 'NONE', *, *, #100, .F. ) ;
#27 = CARTESIAN_POINT ( 'NONE',  ( 4.315329064409620900, 2.172410687959819100, -0.003444184977220678400 ) ) ;
#28 = APPROVAL_DATE_TIME ( #64, #24 ) ;
#29 = CARTESIAN_POINT ( 'NONE',  ( -4.193784272566547100, 6.425122697294036700, 0.8802146706854147000 ) ) ;
#30 = PERSON_AND_ORGANIZATION_ROLE ( 'creator' ) ;
#31 = CC_DESIGN_SECURITY_CLASSIFICATION ( #150, ( #215 ) ) ;
#32 = PERSON_AND_ORGANIZATION_ROLE ( 'classification_officer' ) ;
#33 = CIRCLE ( 'NONE', #87, 6.349999999999999600 ) ;
#34 = SHAPE_DEFINITION_REPRESENTATION ( #88, #212 ) ;
#35 = CIRCLE ( 'NONE', #129, 6.349999999999999600 ) ;
#36 = DIRECTION ( 'NONE',  ( 1.000000000000000000, 0.0000000000000000000, 0.0000000000000000000 ) ) ;
#37 = CARTESIAN_POINT ( 'NONE',  ( 2.498001805406600200E-016, 1.221245327087670000E-015, 0.6494140680878289800 ) ) ;
#38 = VERTEX_POINT ( 'NONE', #207 ) ;
#39 = CARTESIAN_POINT ( 'NONE',  ( -6.252150968329038600, -6.425122697294034100, 1.308308321154989100 ) ) ;
#40 = CARTESIAN_POINT ( 'NONE',  ( 2.102412335341603500, -6.425122697294033200, 0.6650378875870109900 ) ) ;
#41 = CARTESIAN_POINT ( 'NONE',  ( 2.163344718377857600, -2.172410687959815500, -0.2248572491075868400 ) ) ;
#42 = COORDINATED_UNIVERSAL_TIME_OFFSET ( 2, 0, .AHEAD. ) ;
#43 = ORIENTED_EDGE ( 'NONE', *, *, #226, .T. ) ;
#44 = CARTESIAN_POINT ( 'NONE',  ( -2.163344718377867300, -2.172410687959815500, -0.2248572491075882500 ) ) ;
#45 = CARTESIAN_POINT ( 'NONE',  ( 6.433351606852098400, -2.172410687959815500, 0.4370565303898085700 ) ) ;
#46 = EDGE_CURVE ( 'NONE', #184, #132, #68, .T. ) ;
#47 =( NAMED_UNIT ( * ) PLANE_ANGLE_UNIT ( ) SI_UNIT ( $, .RADIAN. ) );
#48 = FACE_OUTER_BOUND ( 'NONE', #102, .T. ) ;
#49 = APPROVAL_STATUS ( 'not_yet_approved' ) ;
#50 = MECHANICAL_CONTEXT ( 'NONE', #232, 'mechanical' ) ;
#51 = CC_DESIGN_APPROVAL ( #24, ( #215 ) ) ;
#52 = CIRCLE ( 'NONE', #69, 31.37000000000000100 ) ;
#53 = CC_DESIGN_DATE_AND_TIME_ASSIGNMENT ( #18, #230, ( #150 ) ) ;
#54 = DIRECTION ( 'NONE',  ( 1.000000000000000000, 0.0000000000000000000, 0.0000000000000000000 ) ) ;
#55 = EDGE_CURVE ( 'NONE', #178, #193, #52, .T. ) ;
#56 = CALENDAR_DATE ( 2019, 2, 1 ) ;
#57 = ADVANCED_FACE ( 'NONE', ( #111 ), #135, .T. ) ;
#58 = CARTESIAN_POINT ( 'NONE',  ( 3.552713678800499400E-015, 2.172410687959819100, -0.2248572491075838400 ) ) ;
#59 = CARTESIAN_POINT ( 'NONE',  ( -4.315329064409642300, -2.172410687959815500, -0.003444184977221382200 ) ) ;
#60 = CARTESIAN_POINT ( 'NONE',  ( 4.315329064409620900, -2.172410687959815500, -0.003444184977223713300 ) ) ;
#61 = PERSON_AND_ORGANIZATION ( #186, #149 ) ;
#62 = CARTESIAN_POINT ( 'NONE',  ( 6.349999999999999600, 1.221245327087670000E-015, 0.6494140680878289800 ) ) ;
#63 = CC_DESIGN_PERSON_AND_ORGANIZATION_ASSIGNMENT ( #217, #32, ( #150 ) ) ;
#64 = DATE_AND_TIME ( #81, #117 ) ;
#65 = PERSON_AND_ORGANIZATION_ROLE ( 'creator' ) ;
#66 = AXIS2_PLACEMENT_3D ( 'NONE', #22, #95, #188 ) ;
#67 = APPLICATION_PROTOCOL_DEFINITION ( 'international standard', 'config_control_design', 1994, #232 ) ;
#68 = CIRCLE ( 'NONE', #20, 6.349999999999999600 ) ;
#69 = AXIS2_PLACEMENT_3D ( 'NONE', #205, #223, #136 ) ;
#70 = LOCAL_TIME ( 13, 33, 27.00000000000000000, #166 ) ;
#71 = APPROVAL_DATE_TIME ( #76, #72 ) ;
#72 = APPROVAL ( #234, 'UNSPECIFIED' ) ;
#73 = DIRECTION ( 'NONE',  ( 1.000000000000000000, 0.0000000000000000000, 0.0000000000000000000 ) ) ;
#74 = CARTESIAN_POINT ( 'NONE',  ( 2.498001805406600200E-016, 1.221245327087670000E-015, 0.6494140680878289800 ) ) ;
#75 = EDGE_LOOP ( 'NONE', ( #139, #144, #176 ) ) ;
#76 = DATE_AND_TIME ( #163, #118 ) ;
#77 = DIRECTION ( 'NONE',  ( -0.0000000000000000000, -0.0000000000000000000, -1.000000000000000000 ) ) ;
#78 = EDGE_CURVE ( 'NONE', #178, #38, #89, .T. ) ;
#79 = DIRECTION ( 'NONE',  ( 0.0000000000000000000, 0.0000000000000000000, 1.000000000000000000 ) ) ;
#80 = CARTESIAN_POINT ( 'NONE',  ( -2.163344718377866900, 2.172410687959819100, -0.2248572491075851200 ) ) ;
#81 = CALENDAR_DATE ( 2019, 2, 1 ) ;
#82 = ORIENTED_EDGE ( 'NONE', *, *, #4, .F. ) ;
#83 = CARTESIAN_POINT ( 'NONE',  ( -4.336808689942017700E-015, 6.425122697294037600, 0.6650378875870127700 ) ) ;
#84 = EDGE_CURVE ( 'NONE', #132, #184, #85, .T. ) ;
#85 = CIRCLE ( 'NONE', #108, 6.349999999999999600 ) ;
#86 = ORIENTED_EDGE ( 'NONE', *, *, #78, .F. ) ;
#87 = AXIS2_PLACEMENT_3D ( 'NONE', #194, #125, #213 ) ;
#88 = PRODUCT_DEFINITION_SHAPE ( 'NONE', 'NONE',  #90 ) ;
#89 = CIRCLE ( 'NONE', #124, 6.349999999999999600 ) ;
#90 = PRODUCT_DEFINITION ( 'UNKNOWN', '', #215, #203 ) ;
#91 = APPROVAL_PERSON_ORGANIZATION ( #192, #24, #103 ) ;
#92 = ORIENTED_EDGE ( 'NONE', *, *, #100, .T. ) ;
#93 = DIRECTION ( 'NONE',  ( 1.000000000000000000, 0.0000000000000000000, 0.0000000000000000000 ) ) ;
#94 = EDGE_CURVE ( 'NONE', #3, #178, #204, .T. ) ;
#95 = DIRECTION ( 'NONE',  ( 0.0000000000000000000, 0.0000000000000000000, 1.000000000000000000 ) ) ;
#96 = CARTESIAN_POINT ( 'NONE',  ( 4.193784272566527500, 6.425122697294036700, 0.8802146706854123700 ) ) ;
#97 = PERSON_AND_ORGANIZATION ( #186, #149 ) ;
#98 = ORIENTED_EDGE ( 'NONE', *, *, #94, .F. ) ;
#99 = CARTESIAN_POINT ( 'NONE',  ( -2.102412335341613300, -6.425122697294033200, 0.6650378875870095500 ) ) ;
#100 = EDGE_CURVE ( 'NONE', #38, #193, #33, .T. ) ;
#101 = CARTESIAN_POINT ( 'NONE',  ( 0.0000000000000000000, 0.0000000000000000000, 0.0000000000000000000 ) ) ;
#102 = EDGE_LOOP ( 'NONE', ( #1, #233, #92 ) ) ;
#103 = APPROVAL_ROLE ( '' ) ;
#104 = SECURITY_CLASSIFICATION_LEVEL ( 'unclassified' ) ;
#105 = APPROVAL_STATUS ( 'not_yet_approved' ) ;
#106 = CC_DESIGN_APPROVAL ( #231, ( #90 ) ) ;
#107 = COORDINATED_UNIVERSAL_TIME_OFFSET ( 2, 0, .AHEAD. ) ;
#108 = AXIS2_PLACEMENT_3D ( 'NONE', #134, #171, #115 ) ;
#109 = PERSON_AND_ORGANIZATION ( #186, #149 ) ;
#110 = DIRECTION ( 'NONE',  ( 1.000000000000000000, -1.776356839400250500E-015, 0.0000000000000000000 ) ) ;
#111 = FACE_OUTER_BOUND ( 'NONE', #189, .T. ) ;
#112 = PERSON_AND_ORGANIZATION ( #186, #149 ) ;
#113 = DIRECTION ( 'NONE',  ( -0.0000000000000000000, -0.0000000000000000000, -1.000000000000000000 ) ) ;
#114 = PRODUCT_RELATED_PRODUCT_CATEGORY ( 'detail', '', ( #7 ) ) ;
#115 = DIRECTION ( 'NONE',  ( 1.000000000000000000, 0.0000000000000000000, 0.0000000000000000000 ) ) ;
#116 = ADVANCED_FACE ( 'NONE', ( #48 ), #168, .T. ) ;
#117 = LOCAL_TIME ( 13, 33, 27.00000000000000000, #42 ) ;
#118 = LOCAL_TIME ( 13, 33, 27.00000000000000000, #167 ) ;
#119 = AXIS2_PLACEMENT_3D ( 'NONE', #208, #152, #93 ) ;
#120 = CARTESIAN_POINT ( 'NONE',  ( -4.315329064409641400, 2.172410687959819100, -0.003444184977218292700 ) ) ;
#121 = CARTESIAN_POINT ( 'NONE',  ( 6.433351606852097500, 2.172410687959819100, 0.4370565303898115700 ) ) ;
#122 = CARTESIAN_POINT ( 'NONE',  ( 3.552713678800499400E-015, -6.425122697294034100, 0.6650378875870111000 ) ) ;
#123 = CARTESIAN_POINT ( 'NONE',  ( 6.349999999999999600, 1.221245327087670000E-015, 2.600000000000000500 ) ) ;
#124 = AXIS2_PLACEMENT_3D ( 'NONE', #153, #154, #73 ) ;
#125 = DIRECTION ( 'NONE',  ( -0.0000000000000000000, -0.0000000000000000000, -1.000000000000000000 ) ) ;
#126 = PERSON_AND_ORGANIZATION_ROLE ( 'design_owner' ) ;
#127 = DATE_TIME_ROLE ( 'creation_date' ) ;
#128 = APPLICATION_CONTEXT ( 'configuration controlled 3d designs of mechanical parts and assemblies' ) ;
#129 = AXIS2_PLACEMENT_3D ( 'NONE', #74, #209, #110 ) ;
#130 = ORIENTED_EDGE ( 'NONE', *, *, #84, .F. ) ;
#131 = CC_DESIGN_PERSON_AND_ORGANIZATION_ASSIGNMENT ( #14, #30, ( #90 ) ) ;
#132 = VERTEX_POINT ( 'NONE', #123 ) ;
#133 = CARTESIAN_POINT ( 'NONE',  ( 3.552713678800499400E-015, 6.349999999999997900, 0.6494140680878266500 ) ) ;
#134 = CARTESIAN_POINT ( 'NONE',  ( 2.498001805406600200E-016, 1.221245327087670000E-015, 2.600000000000000500 ) ) ;
#135 = CYLINDRICAL_SURFACE ( 'NONE', #15, 6.349999999999999600 ) ;
#136 = DIRECTION ( 'NONE',  ( 0.0000000000000000000, -1.000000000000000000, 0.0000000000000000000 ) ) ;
#137 = PLANE ( 'NONE',  #66 ) ;
#138 =( NAMED_UNIT ( * ) SI_UNIT ( $, .STERADIAN. ) SOLID_ANGLE_UNIT ( ) );
#139 = ORIENTED_EDGE ( 'NONE', *, *, #94, .T. ) ;
#140 = CARTESIAN_POINT ( 'NONE',  ( 2.163344718377857600, 2.172410687959819100, -0.2248572491075838100 ) ) ;
#141 = CARTESIAN_POINT ( 'NONE',  ( -6.349999999999999600, 1.998896044546239400E-015, 0.6494140680878289800 ) ) ;
#142 = DIRECTION ( 'NONE',  ( 0.0000000000000000000, 0.0000000000000000000, 1.000000000000000000 ) ) ;
#143 = DIRECTION ( 'NONE',  ( 1.000000000000000000, 0.0000000000000000000, 0.0000000000000000000 ) ) ;
#144 = ORIENTED_EDGE ( 'NONE', *, *, #55, .T. ) ;
#145 = EDGE_CURVE ( 'NONE', #38, #184, #225, .T. ) ;
#146 = APPROVAL_ROLE ( '' ) ;
#147 = FACE_OUTER_BOUND ( 'NONE', #148, .T. ) ;
#148 = EDGE_LOOP ( 'NONE', ( #19, #86, #98, #43, #6 ) ) ;
#149 = ORGANIZATION ( 'UNSPECIFIED', 'UNSPECIFIED', '' ) ;
#150 = SECURITY_CLASSIFICATION ( '', '', #104 ) ;
#151 = CC_DESIGN_PERSON_AND_ORGANIZATION_ASSIGNMENT ( #112, #65, ( #215 ) ) ;
#152 = DIRECTION ( 'NONE',  ( 0.0000000000000000000, 0.0000000000000000000, 1.000000000000000000 ) ) ;
#153 = CARTESIAN_POINT ( 'NONE',  ( 2.498001805406600200E-016, 1.221245327087670000E-015, 0.6494140680878289800 ) ) ;
#154 = DIRECTION ( 'NONE',  ( -0.0000000000000000000, -0.0000000000000000000, -1.000000000000000000 ) ) ;
#155 = CARTESIAN_POINT ( 'NONE',  ( -6.433351606852125000, -2.172410687959815500, 0.4370565303898150700 ) ) ;
#156 = DATE_AND_TIME ( #56, #70 ) ;
#157 = COORDINATED_UNIVERSAL_TIME_OFFSET ( 2, 0, .AHEAD. ) ;
#158 = CARTESIAN_POINT ( 'NONE',  ( 6.252150968329011100, -6.425122697294034100, 1.308308321154983100 ) ) ;
#159 = CARTESIAN_POINT ( 'NONE',  ( -6.349999999999999600, 1.998896044546239400E-015, 2.600000000000000500 ) ) ;
#160 = FACE_OUTER_BOUND ( 'NONE', #75, .T. ) ;
#161 =( LENGTH_UNIT ( ) NAMED_UNIT ( * ) SI_UNIT ( .MILLI., .METRE. ) );
#162 = APPROVAL_ROLE ( '' ) ;
#163 = CALENDAR_DATE ( 2019, 2, 1 ) ;
#164 = CC_DESIGN_PERSON_AND_ORGANIZATION_ASSIGNMENT ( #61, #13, ( #215 ) ) ;
#165 = APPROVAL_PERSON_ORGANIZATION ( #220, #72, #162 ) ;
#166 = COORDINATED_UNIVERSAL_TIME_OFFSET ( 2, 0, .AHEAD. ) ;
#167 = COORDINATED_UNIVERSAL_TIME_OFFSET ( 2, 0, .AHEAD. ) ;
#168 =( BOUNDED_SURFACE ( )  B_SPLINE_SURFACE ( 3, 3, ( 
 ( #39, #25, #99, #9 ),
 ( #155, #59, #44, #175 ),
 ( #227, #120, #80, #195 ),
 ( #12, #29, #23, #83 ) ),
 .UNSPECIFIED., .F., .F., .F. ) 
 B_SPLINE_SURFACE_WITH_KNOTS ( ( 4, 4 ),
 ( 4, 4 ),
 ( 0.0000000000000000000, 1.000000000000000000 ),
 ( 0.0000000000000000000, 1.000000000000000000 ),
 .UNSPECIFIED. ) 
 GEOMETRIC_REPRESENTATION_ITEM ( )  RATIONAL_B_SPLINE_SURFACE ( (
 ( 1.000000000000000000, 0.9964991332635425600, 0.9964991332635425600, 1.000000000000000000),
 ( 0.9858667965659969600, 0.9824154082913212300, 0.9824154082913212300, 0.9858667965659969600),
 ( 0.9858667965659969600, 0.9824154082913212300, 0.9824154082913212300, 0.9858667965659969600),
 ( 1.000000000000000000, 0.9964991332635425600, 0.9964991332635425600, 1.000000000000000000) ) ) 
 REPRESENTATION_ITEM ( '' )  SURFACE ( )  );
#169 = LOCAL_TIME ( 13, 33, 27.00000000000000000, #157 ) ;
#170 = CARTESIAN_POINT ( 'NONE',  ( 2.498001805406600200E-016, 1.221245327087670000E-015, 2.600000000000000500 ) ) ;
#171 = DIRECTION ( 'NONE',  ( -0.0000000000000000000, -0.0000000000000000000, -1.000000000000000000 ) ) ;
#172 = CARTESIAN_POINT ( 'NONE',  ( 2.498001805406600200E-016, 1.221245327087670000E-015, 0.6494140680878289800 ) ) ;
#173 = CARTESIAN_POINT ( 'NONE',  ( 4.193784272566529300, -6.425122697294033200, 0.8802146706854089300 ) ) ;
#174 = CARTESIAN_POINT ( 'NONE',  ( 3.552713678800499400E-015, -6.349999999999996100, 0.6494140680878266500 ) ) ;
#175 = CARTESIAN_POINT ( 'NONE',  ( -4.336808689942018500E-015, -2.172410687959815500, -0.2248572491075888100 ) ) ;
#176 = ORIENTED_EDGE ( 'NONE', *, *, #4, .T. ) ;
#177 = DIRECTION ( 'NONE',  ( 0.0000000000000000000, 0.0000000000000000000, 1.000000000000000000 ) ) ;
#178 = VERTEX_POINT ( 'NONE', #174 ) ;
#179 = APPLICATION_PROTOCOL_DEFINITION ( 'international standard', 'config_control_design', 1994, #128 ) ;
#180 = LINE ( 'NONE', #62, #210 ) ;
#181 = CYLINDRICAL_SURFACE ( 'NONE', #119, 6.349999999999999600 ) ;
#182 = ORIENTED_EDGE ( 'NONE', *, *, #46, .F. ) ;
#183 = CC_DESIGN_APPROVAL ( #72, ( #150 ) ) ;
#184 = VERTEX_POINT ( 'NONE', #159 ) ;
#185 = CALENDAR_DATE ( 2019, 2, 1 ) ;
#186 = PERSON ( 'UNSPECIFIED', 'UNSPECIFIED', 'UNSPECIFIED', ('UNSPECIFIED'), ('UNSPECIFIED'), ('UNSPECIFIED') ) ;
#187 = DIRECTION ( 'NONE',  ( 1.000000000000000000, 0.0000000000000000000, 0.0000000000000000000 ) ) ;
#188 = DIRECTION ( 'NONE',  ( 1.000000000000000000, 0.0000000000000000000, -0.0000000000000000000 ) ) ;
#189 = EDGE_LOOP ( 'NONE', ( #26, #219, #221, #198, #82 ) ) ;
#190 = ADVANCED_FACE ( 'NONE', ( #160 ), #201, .T. ) ;
#191 = AXIS2_PLACEMENT_3D ( 'NONE', #101, #142, #143 ) ;
#192 = PERSON_AND_ORGANIZATION ( #186, #149 ) ;
#193 = VERTEX_POINT ( 'NONE', #133 ) ;
#194 = CARTESIAN_POINT ( 'NONE',  ( 2.498001805406600200E-016, 1.221245327087670000E-015, 0.6494140680878289800 ) ) ;
#195 = CARTESIAN_POINT ( 'NONE',  ( -4.336808689942018500E-015, 2.172410687959819100, -0.2248572491075856400 ) ) ;
#196 = CARTESIAN_POINT ( 'NONE',  ( 2.102412335341603100, 6.425122697294036700, 0.6650378875870146500 ) ) ;
#197 = CARTESIAN_POINT ( 'NONE',  ( 6.252150968329010200, 6.425122697294037600, 1.308308321154986200 ) ) ;
#198 = ORIENTED_EDGE ( 'NONE', *, *, #226, .F. ) ;
#199 = DATE_AND_TIME ( #8, #17 ) ;
#200 =( GEOMETRIC_REPRESENTATION_CONTEXT ( 3 ) GLOBAL_UNCERTAINTY_ASSIGNED_CONTEXT ( ( #206 ) ) GLOBAL_UNIT_ASSIGNED_CONTEXT ( ( #161, #47, #138 ) ) REPRESENTATION_CONTEXT ( 'NONE', 'WORKASPACE' ) );
#201 =( BOUNDED_SURFACE ( )  B_SPLINE_SURFACE ( 3, 3, ( 
 ( #122, #40, #173, #158 ),
 ( #211, #41, #60, #45 ),
 ( #58, #140, #27, #121 ),
 ( #11, #196, #96, #197 ) ),
 .UNSPECIFIED., .F., .F., .T. ) 
 B_SPLINE_SURFACE_WITH_KNOTS ( ( 4, 4 ),
 ( 4, 4 ),
 ( 0.0000000000000000000, 1.000000000000000000 ),
 ( 0.0000000000000000000, 1.000000000000000000 ),
 .UNSPECIFIED. ) 
 GEOMETRIC_REPRESENTATION_ITEM ( )  RATIONAL_B_SPLINE_SURFACE ( (
 ( 1.000000000000000000, 0.9964991332635425600, 0.9964991332635425600, 1.000000000000000000),
 ( 0.9858667965659969600, 0.9824154082913212300, 0.9824154082913212300, 0.9858667965659969600),
 ( 0.9858667965659969600, 0.9824154082913212300, 0.9824154082913212300, 0.9858667965659969600),
 ( 1.000000000000000000, 0.9964991332635425600, 0.9964991332635425600, 1.000000000000000000) ) ) 
 REPRESENTATION_ITEM ( '' )  SURFACE ( )  );
#202 = CC_DESIGN_DATE_AND_TIME_ASSIGNMENT ( #199, #127, ( #90 ) ) ;
#203 = DESIGN_CONTEXT ( 'detailed design', #128, 'design' ) ;
#204 = CIRCLE ( 'NONE', #10, 6.349999999999999600 ) ;
#205 = CARTESIAN_POINT ( 'NONE',  ( 3.552713678800500100E-015, 0.0000000000000000000, 31.37000000000000100 ) ) ;
#206 = UNCERTAINTY_MEASURE_WITH_UNIT (LENGTH_MEASURE( 1.000000000000000100E-005 ), #161, 'distance_accuracy_value', 'NONE');
#207 = CARTESIAN_POINT ( 'NONE',  ( -6.349999999999999600, 1.998896044546239400E-015, 0.6494140680878289800 ) ) ;
#208 = CARTESIAN_POINT ( 'NONE',  ( 2.498001805406600200E-016, 1.221245327087670000E-015, 0.6494140680878289800 ) ) ;
#209 = DIRECTION ( 'NONE',  ( -0.0000000000000000000, -0.0000000000000000000, -1.000000000000000000 ) ) ;
#210 = VECTOR ( 'NONE', #79, 1000.000000000000000 ) ;
#211 = CARTESIAN_POINT ( 'NONE',  ( 3.552713678800499400E-015, -2.172410687959815500, -0.2248572491075868400 ) ) ;
#212 = ADVANCED_BREP_SHAPE_REPRESENTATION ( '110-5111E CaF2 pl-cx 12.7 F75', ( #218, #191 ), #200 ) ;
#213 = DIRECTION ( 'NONE',  ( 1.000000000000000000, 8.881784197001252300E-016, 0.0000000000000000000 ) ) ;
#214 = EDGE_LOOP ( 'NONE', ( #130, #182 ) ) ;
#215 = PRODUCT_DEFINITION_FORMATION_WITH_SPECIFIED_SOURCE ( 'ANY', '', #7, .NOT_KNOWN. ) ;
#216 = FACE_OUTER_BOUND ( 'NONE', #214, .T. ) ;
#217 = PERSON_AND_ORGANIZATION ( #186, #149 ) ;
#218 = MANIFOLD_SOLID_BREP ( 'Imported1', #16 ) ;
#219 = ORIENTED_EDGE ( 'NONE', *, *, #145, .T. ) ;
#220 = PERSON_AND_ORGANIZATION ( #186, #149 ) ;
#221 = ORIENTED_EDGE ( 'NONE', *, *, #46, .T. ) ;
#222 = CARTESIAN_POINT ( 'NONE',  ( 6.349999999999999600, 1.221245327087670000E-015, 0.6494140680878289800 ) ) ;
#223 = DIRECTION ( 'NONE',  ( 1.000000000000000000, 0.0000000000000000000, 0.0000000000000000000 ) ) ;
#224 = DIRECTION ( 'NONE',  ( 0.0000000000000000000, 0.0000000000000000000, 1.000000000000000000 ) ) ;
#225 = LINE ( 'NONE', #141, #229 ) ;
#226 = EDGE_CURVE ( 'NONE', #3, #132, #180, .T. ) ;
#227 = CARTESIAN_POINT ( 'NONE',  ( -6.433351606852124100, 2.172410687959819100, 0.4370565303898182300 ) ) ;
#228 = APPROVAL_DATE_TIME ( #156, #231 ) ;
#229 = VECTOR ( 'NONE', #177, 1000.000000000000000 ) ;
#230 = DATE_TIME_ROLE ( 'classification_date' ) ;
#231 = APPROVAL ( #49, 'UNSPECIFIED' ) ;
#232 = APPLICATION_CONTEXT ( 'configuration controlled 3d designs of mechanical parts and assemblies' ) ;
#233 = ORIENTED_EDGE ( 'NONE', *, *, #78, .T. ) ;
#234 = APPROVAL_STATUS ( 'not_yet_approved' ) ;
#235 = CC_DESIGN_PERSON_AND_ORGANIZATION_ASSIGNMENT ( #97, #126, ( #7 ) ) ;
ENDSEC;
END-ISO-10303-21;
