ISO-10303-21;
HEADER;
FILE_DESCRIPTION (( 'STEP AP203' ),
    '1' );
FILE_NAME ('110-5109E CaF2 pl-cx 12.7 F50.STEP',
    '2019-01-02T10:55:33',
    ( '' ),
    ( '' ),
    'SwSTEP 2.0',
    'SolidWorks 2017',
    '' );
FILE_SCHEMA (( 'CONFIG_CONTROL_DESIGN' ));
ENDSEC;

DATA;
#1 = PERSON_AND_ORGANIZATION_ROLE ( 'classification_officer' ) ;
#2 = CC_DESIGN_PERSON_AND_ORGANIZATION_ASSIGNMENT ( #116, #1, ( #203 ) ) ;
#3 = APPROVAL ( #179, 'UNSPECIFIED' ) ;
#4 = PERSON_AND_ORGANIZATION ( #66, #19 ) ;
#5 = EDGE_CURVE ( 'NONE', #166, #206, #130, .T. ) ;
#6 = CIRCLE ( 'NONE', #168, 6.349999999999999600 ) ;
#7 = DIRECTION ( 'NONE',  ( 0.0000000000000000000, -1.000000000000000000, -1.707404996040164500E-016 ) ) ;
#8 = CARTESIAN_POINT ( 'NONE',  ( 2.215631549287817100, 2.212570681004451900, -0.3482809054570885600 ) ) ;
#9 = DIRECTION ( 'NONE',  ( 1.000000000000000000, 0.0000000000000000000, -0.0000000000000000000 ) ) ;
#10 = COORDINATED_UNIVERSAL_TIME_OFFSET ( 2, 0, .AHEAD. ) ;
#11 = CC_DESIGN_DATE_AND_TIME_ASSIGNMENT ( #32, #47, ( #203 ) ) ;
#12 = CARTESIAN_POINT ( 'NONE',  ( 2.498001805406600200E-016, -6.349999999999998800, 0.9875101957611720500 ) ) ;
#13 = VERTEX_POINT ( 'NONE', #190 ) ;
#14 = DIRECTION ( 'NONE',  ( 0.0000000000000000000, -1.000000000000000000, 0.0000000000000000000 ) ) ;
#15 = CALENDAR_DATE ( 2019, 2, 1 ) ;
#16 = CC_DESIGN_APPROVAL ( #3, ( #180 ) ) ;
#17 = APPLICATION_CONTEXT ( 'configuration controlled 3d designs of mechanical parts and assemblies' ) ;
#18 = AXIS2_PLACEMENT_3D ( 'NONE', #137, #87, #7 ) ;
#19 = ORGANIZATION ( 'UNSPECIFIED', 'UNSPECIFIED', '' ) ;
#20 = ORIENTED_EDGE ( 'NONE', *, *, #197, .F. ) ;
#21 = CALENDAR_DATE ( 2019, 2, 1 ) ;
#22 = CIRCLE ( 'NONE', #88, 6.349999999999999600 ) ;
#23 = CC_DESIGN_SECURITY_CLASSIFICATION ( #203, ( #180 ) ) ;
#24 = VERTEX_POINT ( 'NONE', #136 ) ;
#25 = CARTESIAN_POINT ( 'NONE',  ( 4.404459677084553900, -2.212570681004449200, -0.004690176296113679500 ) ) ;
#26 = DIRECTION ( 'NONE',  ( 3.182929251087199900E-032, 1.654999228746509900E-016, -1.000000000000000000 ) ) ;
#27 = SHAPE_DEFINITION_REPRESENTATION ( #107, #35 ) ;
#28 = CARTESIAN_POINT ( 'NONE',  ( 2.215631549287817100, -2.212570681004449200, -0.3482809054570870600 ) ) ;
#29 = CARTESIAN_POINT ( 'NONE',  ( 2.498001805406600200E-016, -6.349999999999998800, 0.9875101957611720500 ) ) ;
#30 = VECTOR ( 'NONE', #142, 1000.000000000000000 ) ;
#31 = CARTESIAN_POINT ( 'NONE',  ( -4.336808689942017700E-015, 2.212570681004452800, -0.3482809054570856800 ) ) ;
#32 = DATE_AND_TIME ( #150, #72 ) ;
#33 = MECHANICAL_CONTEXT ( 'NONE', #129, 'mechanical' ) ;
#34 = EDGE_CURVE ( 'NONE', #206, #166, #6, .T. ) ;
#35 = ADVANCED_BREP_SHAPE_REPRESENTATION ( '110-5109E CaF2 pl-cx 12.7 F50', ( #209, #147 ), #64 ) ;
#36 = ORIENTED_EDGE ( 'NONE', *, *, #113, .T. ) ;
#37 = PERSON_AND_ORGANIZATION ( #66, #19 ) ;
#38 = AXIS2_PLACEMENT_3D ( 'NONE', #90, #45, #178 ) ;
#39 = ADVANCED_FACE ( 'NONE', ( #54 ), #192, .T. ) ;
#40 = ADVANCED_FACE ( 'NONE', ( #214 ), #132, .T. ) ;
#41 = CARTESIAN_POINT ( 'NONE',  ( 2.073944782006372600, -6.423722572524218000, 1.011158618873238900 ) ) ;
#42 = DIRECTION ( 'NONE',  ( 0.0000000000000000000, -1.000000000000000000, -1.707404996040164500E-016 ) ) ;
#43 = ORIENTED_EDGE ( 'NONE', *, *, #5, .F. ) ;
#44 = CARTESIAN_POINT ( 'NONE',  ( -2.215631549287818500, -2.212570681004449200, -0.3482809054570838400 ) ) ;
#45 = DIRECTION ( 'NONE',  ( 3.182929251087199900E-032, 1.654999228746509900E-016, -1.000000000000000000 ) ) ;
#46 = ORIENTED_EDGE ( 'NONE', *, *, #207, .T. ) ;
#47 = DATE_TIME_ROLE ( 'classification_date' ) ;
#48 = DIRECTION ( 'NONE',  ( 0.0000000000000000000, -1.000000000000000000, -1.707404996040164500E-016 ) ) ;
#49 = APPROVAL_ROLE ( '' ) ;
#50 = PERSON_AND_ORGANIZATION_ROLE ( 'design_owner' ) ;
#51 = AXIS2_PLACEMENT_3D ( 'NONE', #159, #124, #14 ) ;
#52 = ORIENTED_EDGE ( 'NONE', *, *, #207, .F. ) ;
#53 = APPROVAL_DATE_TIME ( #103, #68 ) ;
#54 = FACE_OUTER_BOUND ( 'NONE', #125, .T. ) ;
#55 = CARTESIAN_POINT ( 'NONE',  ( 2.423127533439969400E-016, 6.423722572524219700, 1.011158618873238900 ) ) ;
#56 = CIRCLE ( 'NONE', #38, 6.349999999999999600 ) ;
#57 = CARTESIAN_POINT ( 'NONE',  ( -2.073944782006373900, -6.423722572524218000, 1.011158618873242200 ) ) ;
#58 = CC_DESIGN_PERSON_AND_ORGANIZATION_ASSIGNMENT ( #195, #50, ( #80 ) ) ;
#59 = CARTESIAN_POINT ( 'NONE',  ( 2.498001805406599800E-016, 8.881784197001227700E-016, 3.000000000000000000 ) ) ;
#60 = CARTESIAN_POINT ( 'NONE',  ( -5.204170427930421300E-015, -6.423722572524216200, 1.011158618873241500 ) ) ;
#61 = PERSON_AND_ORGANIZATION ( #66, #19 ) ;
#62 =( NAMED_UNIT ( * ) PLANE_ANGLE_UNIT ( ) SI_UNIT ( $, .RADIAN. ) );
#63 = DATE_TIME_ROLE ( 'creation_date' ) ;
#64 =( GEOMETRIC_REPRESENTATION_CONTEXT ( 3 ) GLOBAL_UNCERTAINTY_ASSIGNED_CONTEXT ( ( #98 ) ) GLOBAL_UNIT_ASSIGNED_CONTEXT ( ( #198, #62, #194 ) ) REPRESENTATION_CONTEXT ( 'NONE', 'WORKASPACE' ) );
#65 = ORIENTED_EDGE ( 'NONE', *, *, #122, .T. ) ;
#66 = PERSON ( 'UNSPECIFIED', 'UNSPECIFIED', 'UNSPECIFIED', ('UNSPECIFIED'), ('UNSPECIFIED'), ('UNSPECIFIED') ) ;
#67 = APPROVAL_DATE_TIME ( #134, #200 ) ;
#68 = APPROVAL ( #145, 'UNSPECIFIED' ) ;
#69 = ADVANCED_FACE ( 'NONE', ( #182 ), #89, .T. ) ;
#70 = PRODUCT_RELATED_PRODUCT_CATEGORY ( 'detail', '', ( #80 ) ) ;
#71 = CARTESIAN_POINT ( 'NONE',  ( 2.588669600857807400E-016, 2.212570681004452800, -0.3482809054570884500 ) ) ;
#72 = LOCAL_TIME ( 12, 55, 33.00000000000000000, #187 ) ;
#73 = CARTESIAN_POINT ( 'NONE',  ( 4.122800186602853000, 6.423722572524221500, 1.332777166017603500 ) ) ;
#74 = CARTESIAN_POINT ( 'NONE',  ( 6.513526044807488100, 2.212570681004452800, 0.6741781605259238300 ) ) ;
#75 = PRODUCT_DEFINITION ( 'UNKNOWN', '', #180, #117 ) ;
#76 = CARTESIAN_POINT ( 'NONE',  ( 0.0000000000000000000, 0.0000000000000000000, 0.0000000000000000000 ) ) ;
#77 = ORIENTED_EDGE ( 'NONE', *, *, #122, .F. ) ;
#78 = CARTESIAN_POINT ( 'NONE',  ( 2.498001805406600200E-016, 1.221245327087670000E-015, 0.9875101957611731600 ) ) ;
#79 = APPLICATION_PROTOCOL_DEFINITION ( 'international standard', 'config_control_design', 1994, #129 ) ;
#80 = PRODUCT ( '110-5109E CaF2 pl-cx 12.7 F50', '110-5109E CaF2 pl-cx 12.7 F50', '', ( #33 ) ) ;
#81 = AXIS2_PLACEMENT_3D ( 'NONE', #205, #105, #9 ) ;
#82 = ORIENTED_EDGE ( 'NONE', *, *, #34, .F. ) ;
#83 = LOCAL_TIME ( 12, 55, 33.00000000000000000, #10 ) ;
#84 = CARTESIAN_POINT ( 'NONE',  ( 2.073944782006372600, 6.423722572524221500, 1.011158618873238900 ) ) ;
#85 = APPROVAL_PERSON_ORGANIZATION ( #61, #68, #49 ) ;
#86 = CARTESIAN_POINT ( 'NONE',  ( 2.498001805406600200E-016, 1.221245327087670000E-015, 0.9875101957611731600 ) ) ;
#87 = DIRECTION ( 'NONE',  ( -3.182929251087199900E-032, -1.654999228746509900E-016, 1.000000000000000000 ) ) ;
#88 = AXIS2_PLACEMENT_3D ( 'NONE', #59, #196, #110 ) ;
#89 = PLANE ( 'NONE',  #81 ) ;
#90 = CARTESIAN_POINT ( 'NONE',  ( 2.498001805406599800E-016, 8.881784197001227700E-016, 3.000000000000000000 ) ) ;
#91 = CC_DESIGN_APPROVAL ( #200, ( #203 ) ) ;
#92 = ORIENTED_EDGE ( 'NONE', *, *, #34, .T. ) ;
#93 = CARTESIAN_POINT ( 'NONE',  ( -5.204170427930421300E-015, 6.423722572524219700, 1.011158618873241500 ) ) ;
#94 = COORDINATED_UNIVERSAL_TIME_OFFSET ( 2, 0, .AHEAD. ) ;
#95 = CARTESIAN_POINT ( 'NONE',  ( 1.027450897999229200E-015, 6.350000000000000500, 0.9875101957611742700 ) ) ;
#96 = PERSON_AND_ORGANIZATION_ROLE ( 'creator' ) ;
#97 = CALENDAR_DATE ( 2019, 2, 1 ) ;
#98 = UNCERTAINTY_MEASURE_WITH_UNIT (LENGTH_MEASURE( 1.000000000000000100E-005 ), #198, 'distance_accuracy_value', 'NONE');
#99 = DATE_AND_TIME ( #15, #83 ) ;
#100 = CIRCLE ( 'NONE', #51, 20.91000000000000000 ) ;
#101 = ADVANCED_FACE ( 'NONE', ( #167 ), #152, .T. ) ;
#102 = CLOSED_SHELL ( 'NONE', ( #39, #40, #101, #151, #69 ) ) ;
#103 = DATE_AND_TIME ( #97, #177 ) ;
#104 = VECTOR ( 'NONE', #108, 1000.000000000000000 ) ;
#105 = DIRECTION ( 'NONE',  ( 0.0000000000000000000, 0.0000000000000000000, 1.000000000000000000 ) ) ;
#106 = AXIS2_PLACEMENT_3D ( 'NONE', #121, #26, #42 ) ;
#107 = PRODUCT_DEFINITION_SHAPE ( 'NONE', 'NONE',  #75 ) ;
#108 = DIRECTION ( 'NONE',  ( -3.182929251087199900E-032, -1.654999228746509900E-016, 1.000000000000000000 ) ) ;
#109 = LINE ( 'NONE', #29, #30 ) ;
#110 = DIRECTION ( 'NONE',  ( 0.0000000000000000000, -1.000000000000000000, -1.365923996832131600E-016 ) ) ;
#111 = APPROVAL_STATUS ( 'not_yet_approved' ) ;
#112 = LOCAL_TIME ( 12, 55, 33.00000000000000000, #94 ) ;
#113 = EDGE_CURVE ( 'NONE', #13, #24, #22, .T. ) ;
#114 = APPROVAL_DATE_TIME ( #160, #3 ) ;
#115 = ORIENTED_EDGE ( 'NONE', *, *, #113, .F. ) ;
#116 = PERSON_AND_ORGANIZATION ( #66, #19 ) ;
#117 = DESIGN_CONTEXT ( 'detailed design', #17, 'design' ) ;
#118 = ORIENTED_EDGE ( 'NONE', *, *, #133, .F. ) ;
#119 = FACE_OUTER_BOUND ( 'NONE', #141, .T. ) ;
#120 = CARTESIAN_POINT ( 'NONE',  ( 6.096994492352876300, 6.423722572524219700, 1.968232752156901900 ) ) ;
#121 = CARTESIAN_POINT ( 'NONE',  ( 2.498001805406600200E-016, 1.221245327087670000E-015, 0.9875101957611731600 ) ) ;
#122 = EDGE_CURVE ( 'NONE', #24, #13, #56, .T. ) ;
#123 = CARTESIAN_POINT ( 'NONE',  ( -4.404459677084550300, -2.212570681004449200, -0.004690176296111293400 ) ) ;
#124 = DIRECTION ( 'NONE',  ( 1.000000000000000000, 0.0000000000000000000, 0.0000000000000000000 ) ) ;
#125 = EDGE_LOOP ( 'NONE', ( #170, #148 ) ) ;
#126 = CARTESIAN_POINT ( 'NONE',  ( -2.073944782006373900, 6.423722572524221500, 1.011158618873242200 ) ) ;
#127 = PERSON_AND_ORGANIZATION ( #66, #19 ) ;
#128 = APPLICATION_PROTOCOL_DEFINITION ( 'international standard', 'config_control_design', 1994, #17 ) ;
#129 = APPLICATION_CONTEXT ( 'configuration controlled 3d designs of mechanical parts and assemblies' ) ;
#130 = CIRCLE ( 'NONE', #106, 6.349999999999999600 ) ;
#131 = CALENDAR_DATE ( 2019, 2, 1 ) ;
#132 = CYLINDRICAL_SURFACE ( 'NONE', #18, 6.349999999999999600 ) ;
#133 = EDGE_CURVE ( 'NONE', #206, #166, #100, .T. ) ;
#134 = DATE_AND_TIME ( #131, #112 ) ;
#135 = CARTESIAN_POINT ( 'NONE',  ( 2.588669600857807400E-016, -2.212570681004448800, -0.3482809054570870100 ) ) ;
#136 = CARTESIAN_POINT ( 'NONE',  ( 1.027450897999229200E-015, 6.350000000000000500, 3.000000000000000900 ) ) ;
#137 = CARTESIAN_POINT ( 'NONE',  ( 2.498001805406600200E-016, 1.221245327087670000E-015, 0.9875101957611731600 ) ) ;
#138 = CARTESIAN_POINT ( 'NONE',  ( -6.513526044807483700, -2.212570681004448800, 0.6741781605259261600 ) ) ;
#139 = CC_DESIGN_PERSON_AND_ORGANIZATION_ASSIGNMENT ( #127, #164, ( #75 ) ) ;
#140 = CARTESIAN_POINT ( 'NONE',  ( -4.122800186602851200, 6.423722572524221500, 1.332777166017606200 ) ) ;
#141 = EDGE_LOOP ( 'NONE', ( #20, #82, #46, #36 ) ) ;
#142 = DIRECTION ( 'NONE',  ( -3.182929251087199900E-032, -1.654999228746509900E-016, 1.000000000000000000 ) ) ;
#143 = PERSON_AND_ORGANIZATION ( #66, #19 ) ;
#144 = APPROVAL_ROLE ( '' ) ;
#145 = APPROVAL_STATUS ( 'not_yet_approved' ) ;
#146 = DIRECTION ( 'NONE',  ( 1.000000000000000000, 0.0000000000000000000, 0.0000000000000000000 ) ) ;
#147 = AXIS2_PLACEMENT_3D ( 'NONE', #76, #213, #146 ) ;
#148 = ORIENTED_EDGE ( 'NONE', *, *, #133, .T. ) ;
#149 = APPROVAL_PERSON_ORGANIZATION ( #37, #3, #199 ) ;
#150 = CALENDAR_DATE ( 2019, 2, 1 ) ;
#151 = ADVANCED_FACE ( 'NONE', ( #119 ), #153, .T. ) ;
#152 =( BOUNDED_SURFACE ( )  B_SPLINE_SURFACE ( 3, 3, ( 
 ( #154, #155, #57, #60 ),
 ( #138, #123, #44, #210 ),
 ( #162, #174, #161, #31 ),
 ( #176, #140, #126, #93 ) ),
 .UNSPECIFIED., .F., .F., .T. ) 
 B_SPLINE_SURFACE_WITH_KNOTS ( ( 4, 4 ),
 ( 4, 4 ),
 ( 0.0000000000000000000, 1.000000000000000000 ),
 ( 0.0000000000000000000, 1.000000000000000000 ),
 .UNSPECIFIED. ) 
 GEOMETRIC_REPRESENTATION_ITEM ( )  RATIONAL_B_SPLINE_SURFACE ( (
 ( 1.000000000000000000, 0.9919350545146080600, 0.9919350545146080600, 1.000000000000000000),
 ( 0.9677615616491872500, 0.9599566174116287400, 0.9599566174116287400, 0.9677615616491872500),
 ( 0.9677615616491872500, 0.9599566174116287400, 0.9599566174116287400, 0.9677615616491872500),
 ( 1.000000000000000000, 0.9919350545146080600, 0.9919350545146080600, 1.000000000000000000) ) ) 
 REPRESENTATION_ITEM ( '' )  SURFACE ( )  );
#153 = CYLINDRICAL_SURFACE ( 'NONE', #169, 6.349999999999999600 ) ;
#154 = CARTESIAN_POINT ( 'NONE',  ( -6.096994492352870900, -6.423722572524216200, 1.968232752156903000 ) ) ;
#155 = CARTESIAN_POINT ( 'NONE',  ( -4.122800186602851200, -6.423722572524218000, 1.332777166017606200 ) ) ;
#156 = CARTESIAN_POINT ( 'NONE',  ( 6.513526044807488100, -2.212570681004448800, 0.6741781605259253900 ) ) ;
#157 = DIRECTION ( 'NONE',  ( 3.182929251087199900E-032, 1.654999228746509900E-016, -1.000000000000000000 ) ) ;
#158 = CC_DESIGN_DATE_AND_TIME_ASSIGNMENT ( #99, #63, ( #75 ) ) ;
#159 = CARTESIAN_POINT ( 'NONE',  ( 0.0000000000000000000, -1.776356839400250100E-015, 20.91000000000000000 ) ) ;
#160 = DATE_AND_TIME ( #21, #202 ) ;
#161 = CARTESIAN_POINT ( 'NONE',  ( -2.215631549287818000, 2.212570681004451900, -0.3482809054570852300 ) ) ;
#162 = CARTESIAN_POINT ( 'NONE',  ( -6.513526044807483700, 2.212570681004452800, 0.6741781605259250500 ) ) ;
#163 = EDGE_LOOP ( 'NONE', ( #118, #92 ) ) ;
#164 = PERSON_AND_ORGANIZATION_ROLE ( 'creator' ) ;
#165 = COORDINATED_UNIVERSAL_TIME_OFFSET ( 2, 0, .AHEAD. ) ;
#166 = VERTEX_POINT ( 'NONE', #211 ) ;
#167 = FACE_OUTER_BOUND ( 'NONE', #163, .T. ) ;
#168 = AXIS2_PLACEMENT_3D ( 'NONE', #86, #157, #189 ) ;
#169 = AXIS2_PLACEMENT_3D ( 'NONE', #78, #175, #48 ) ;
#170 = ORIENTED_EDGE ( 'NONE', *, *, #5, .T. ) ;
#171 = CARTESIAN_POINT ( 'NONE',  ( 4.122800186602853000, -6.423722572524218000, 1.332777166017603500 ) ) ;
#172 = PERSON_AND_ORGANIZATION ( #66, #19 ) ;
#173 = CARTESIAN_POINT ( 'NONE',  ( 4.404459677084553900, 2.212570681004451900, -0.004690176296115196500 ) ) ;
#174 = CARTESIAN_POINT ( 'NONE',  ( -4.404459677084550300, 2.212570681004451900, -0.004690176296112594400 ) ) ;
#175 = DIRECTION ( 'NONE',  ( -3.182929251087199900E-032, -1.654999228746509900E-016, 1.000000000000000000 ) ) ;
#176 = CARTESIAN_POINT ( 'NONE',  ( -6.096994492352870900, 6.423722572524219700, 1.968232752156903000 ) ) ;
#177 = LOCAL_TIME ( 12, 55, 33.00000000000000000, #185 ) ;
#178 = DIRECTION ( 'NONE',  ( 0.0000000000000000000, -1.000000000000000000, -1.365923996832131600E-016 ) ) ;
#179 = APPROVAL_STATUS ( 'not_yet_approved' ) ;
#180 = PRODUCT_DEFINITION_FORMATION_WITH_SPECIFIED_SOURCE ( 'ANY', '', #80, .NOT_KNOWN. ) ;
#181 = SECURITY_CLASSIFICATION_LEVEL ( 'unclassified' ) ;
#182 = FACE_OUTER_BOUND ( 'NONE', #212, .T. ) ;
#183 = APPROVAL_PERSON_ORGANIZATION ( #143, #200, #144 ) ;
#184 = CC_DESIGN_PERSON_AND_ORGANIZATION_ASSIGNMENT ( #4, #96, ( #180 ) ) ;
#185 = COORDINATED_UNIVERSAL_TIME_OFFSET ( 2, 0, .AHEAD. ) ;
#186 = EDGE_LOOP ( 'NONE', ( #43, #193, #65, #52 ) ) ;
#187 = COORDINATED_UNIVERSAL_TIME_OFFSET ( 2, 0, .AHEAD. ) ;
#188 = CARTESIAN_POINT ( 'NONE',  ( 6.096994492352876300, -6.423722572524216200, 1.968232752156901900 ) ) ;
#189 = DIRECTION ( 'NONE',  ( 0.0000000000000000000, -1.000000000000000000, -1.707404996040164500E-016 ) ) ;
#190 = CARTESIAN_POINT ( 'NONE',  ( 2.498001805406599800E-016, -6.349999999999998800, 2.999999999999999100 ) ) ;
#191 = CC_DESIGN_PERSON_AND_ORGANIZATION_ASSIGNMENT ( #172, #215, ( #180 ) ) ;
#192 =( BOUNDED_SURFACE ( )  B_SPLINE_SURFACE ( 3, 3, ( 
 ( #208, #41, #171, #188 ),
 ( #135, #28, #25, #156 ),
 ( #71, #8, #173, #74 ),
 ( #55, #84, #73, #120 ) ),
 .UNSPECIFIED., .F., .F., .T. ) 
 B_SPLINE_SURFACE_WITH_KNOTS ( ( 4, 4 ),
 ( 4, 4 ),
 ( 0.0000000000000000000, 1.000000000000000000 ),
 ( 0.0000000000000000000, 1.000000000000000000 ),
 .UNSPECIFIED. ) 
 GEOMETRIC_REPRESENTATION_ITEM ( )  RATIONAL_B_SPLINE_SURFACE ( (
 ( 1.000000000000000000, 0.9919350545146080600, 0.9919350545146080600, 1.000000000000000000),
 ( 0.9677615616491872500, 0.9599566174116287400, 0.9599566174116287400, 0.9677615616491872500),
 ( 0.9677615616491872500, 0.9599566174116287400, 0.9599566174116287400, 0.9677615616491872500),
 ( 1.000000000000000000, 0.9919350545146080600, 0.9919350545146080600, 1.000000000000000000) ) ) 
 REPRESENTATION_ITEM ( '' )  SURFACE ( )  );
#193 = ORIENTED_EDGE ( 'NONE', *, *, #197, .T. ) ;
#194 =( NAMED_UNIT ( * ) SI_UNIT ( $, .STERADIAN. ) SOLID_ANGLE_UNIT ( ) );
#195 = PERSON_AND_ORGANIZATION ( #66, #19 ) ;
#196 = DIRECTION ( 'NONE',  ( 3.182929251087199900E-032, 1.654999228746509900E-016, -1.000000000000000000 ) ) ;
#197 = EDGE_CURVE ( 'NONE', #166, #24, #201, .T. ) ;
#198 =( LENGTH_UNIT ( ) NAMED_UNIT ( * ) SI_UNIT ( .MILLI., .METRE. ) );
#199 = APPROVAL_ROLE ( '' ) ;
#200 = APPROVAL ( #111, 'UNSPECIFIED' ) ;
#201 = LINE ( 'NONE', #95, #104 ) ;
#202 = LOCAL_TIME ( 12, 55, 33.00000000000000000, #165 ) ;
#203 = SECURITY_CLASSIFICATION ( '', '', #181 ) ;
#204 = CC_DESIGN_APPROVAL ( #68, ( #75 ) ) ;
#205 = CARTESIAN_POINT ( 'NONE',  ( 0.0000000000000000000, 13.15799999999999900, 3.000000000000000000 ) ) ;
#206 = VERTEX_POINT ( 'NONE', #12 ) ;
#207 = EDGE_CURVE ( 'NONE', #206, #13, #109, .T. ) ;
#208 = CARTESIAN_POINT ( 'NONE',  ( 2.423127533439969400E-016, -6.423722572524216200, 1.011158618873238900 ) ) ;
#209 = MANIFOLD_SOLID_BREP ( 'Imported1', #102 ) ;
#210 = CARTESIAN_POINT ( 'NONE',  ( -5.204170427930421300E-015, -2.212570681004448800, -0.3482809054570844000 ) ) ;
#211 = CARTESIAN_POINT ( 'NONE',  ( 1.027450897999229200E-015, 6.350000000000000500, 0.9875101957611742700 ) ) ;
#212 = EDGE_LOOP ( 'NONE', ( #115, #77 ) ) ;
#213 = DIRECTION ( 'NONE',  ( 0.0000000000000000000, 0.0000000000000000000, 1.000000000000000000 ) ) ;
#214 = FACE_OUTER_BOUND ( 'NONE', #186, .T. ) ;
#215 = PERSON_AND_ORGANIZATION_ROLE ( 'design_supplier' ) ;
ENDSEC;
END-ISO-10303-21;
