ISO-10303-21;
HEADER;
FILE_DESCRIPTION (( 'STEP AP203' ),
    '1' );
FILE_NAME ('110-5105E CaF2 pl-cx 12.7 F25.STEP',
    '2019-01-02T09:02:22',
    ( '' ),
    ( '' ),
    'SwSTEP 2.0',
    'SolidWorks 2017',
    '' );
FILE_SCHEMA (( 'CONFIG_CONTROL_DESIGN' ));
ENDSEC;

DATA;
#1 = CC_DESIGN_DATE_AND_TIME_ASSIGNMENT ( #96, #32, ( #57 ) ) ;
#2 = ORIENTED_EDGE ( 'NONE', *, *, #99, .T. ) ;
#3 = PERSON_AND_ORGANIZATION ( #49, #115 ) ;
#4 = ORIENTED_EDGE ( 'NONE', *, *, #84, .F. ) ;
#5 = APPROVAL ( #161, 'UNSPECIFIED' ) ;
#6 = DIRECTION ( 'NONE',  ( 1.000000000000000000, 0.0000000000000000000, -0.0000000000000000000 ) ) ;
#7 = ORIENTED_EDGE ( 'NONE', *, *, #150, .T. ) ;
#8 = DIRECTION ( 'NONE',  ( 0.0000000000000000000, 0.0000000000000000000, 1.000000000000000000 ) ) ;
#9 = CIRCLE ( 'NONE', #104, 10.45999999999999900 ) ;
#10 = CARTESIAN_POINT ( 'NONE',  ( 6.902370596863463000, 2.486639941139158900, 1.497912367413476700 ) ) ;
#11 = CARTESIAN_POINT ( 'NONE',  ( 2.498001805406600200E-016, 1.221245327087670000E-015, 2.148014677587549900 ) ) ;
#12 = DIRECTION ( 'NONE',  ( 1.000000000000000000, 0.0000000000000000000, 0.0000000000000000000 ) ) ;
#13 = APPROVAL ( #176, 'UNSPECIFIED' ) ;
#14 = PERSON_AND_ORGANIZATION_ROLE ( 'creator' ) ;
#15 = ORIENTED_EDGE ( 'NONE', *, *, #204, .T. ) ;
#16 = CLOSED_SHELL ( 'NONE', ( #64, #125, #220, #38, #60 ) ) ;
#17 = APPLICATION_PROTOCOL_DEFINITION ( 'international standard', 'config_control_design', 1994, #18 ) ;
#18 = APPLICATION_CONTEXT ( 'configuration controlled 3d designs of mechanical parts and assemblies' ) ;
#19 = CC_DESIGN_PERSON_AND_ORGANIZATION_ASSIGNMENT ( #162, #77, ( #57 ) ) ;
#20 = ORIENTED_EDGE ( 'NONE', *, *, #127, .T. ) ;
#21 =( GEOMETRIC_REPRESENTATION_CONTEXT ( 3 ) GLOBAL_UNCERTAINTY_ASSIGNED_CONTEXT ( ( #187 ) ) GLOBAL_UNIT_ASSIGNED_CONTEXT ( ( #216, #160, #34 ) ) REPRESENTATION_CONTEXT ( 'NONE', 'WORKASPACE' ) );
#22 = COORDINATED_UNIVERSAL_TIME_OFFSET ( 2, 0, .AHEAD. ) ;
#23 = LOCAL_TIME ( 11, 2, 22.00000000000000000, #22 ) ;
#24 = CC_DESIGN_APPROVAL ( #13, ( #57 ) ) ;
#25 = EDGE_CURVE ( 'NONE', #59, #46, #159, .T. ) ;
#26 = DIRECTION ( 'NONE',  ( 0.0000000000000000000, 0.0000000000000000000, 1.000000000000000000 ) ) ;
#27 = PRODUCT ( '110-5105E CaF2 pl-cx 12.7 F25', '110-5105E CaF2 pl-cx 12.7 F25', '', ( #119 ) ) ;
#28 = APPROVAL_PERSON_ORGANIZATION ( #122, #120, #231 ) ;
#29 = CARTESIAN_POINT ( 'NONE',  ( -6.349999999999999600, 1.998896044546239400E-015, 2.148014677587549900 ) ) ;
#30 = DIRECTION ( 'NONE',  ( 0.0000000000000000000, 0.0000000000000000000, 1.000000000000000000 ) ) ;
#31 = CARTESIAN_POINT ( 'NONE',  ( -1.840634485082551800, -6.414875029160951300, 2.197979765199844100 ) ) ;
#32 = DATE_TIME_ROLE ( 'classification_date' ) ;
#33 = DATE_TIME_ROLE ( 'creation_date' ) ;
#34 =( NAMED_UNIT ( * ) SI_UNIT ( $, .STERADIAN. ) SOLID_ANGLE_UNIT ( ) );
#35 = APPROVAL_DATE_TIME ( #180, #5 ) ;
#36 = LOCAL_TIME ( 11, 2, 22.00000000000000000, #81 ) ;
#37 = PERSON_AND_ORGANIZATION_ROLE ( 'design_supplier' ) ;
#38 = ADVANCED_FACE ( 'NONE', ( #111 ), #92, .T. ) ;
#39 = VECTOR ( 'NONE', #100, 1000.000000000000000 ) ;
#40 = EDGE_LOOP ( 'NONE', ( #182, #145 ) ) ;
#41 = CC_DESIGN_PERSON_AND_ORGANIZATION_ASSIGNMENT ( #117, #14, ( #109 ) ) ;
#42 = APPROVAL_PERSON_ORGANIZATION ( #218, #5, #93 ) ;
#43 = CALENDAR_DATE ( 2019, 2, 1 ) ;
#44 = CC_DESIGN_PERSON_AND_ORGANIZATION_ASSIGNMENT ( #72, #37, ( #109 ) ) ;
#45 = CIRCLE ( 'NONE', #143, 6.349999999999999600 ) ;
#46 = VERTEX_POINT ( 'NONE', #169 ) ;
#47 = CARTESIAN_POINT ( 'NONE',  ( 5.041322357129914200, -6.414875029160953100, 3.914310788637354000 ) ) ;
#48 = CARTESIAN_POINT ( 'NONE',  ( 4.905773265209798100, -2.486639941139157100, -0.03981581387244546900 ) ) ;
#49 = PERSON ( 'UNSPECIFIED', 'UNSPECIFIED', 'UNSPECIFIED', ('UNSPECIFIED'), ('UNSPECIFIED'), ('UNSPECIFIED') ) ;
#50 = ORIENTED_EDGE ( 'NONE', *, *, #123, .T. ) ;
#51 = ADVANCED_BREP_SHAPE_REPRESENTATION ( '110-5105E CaF2 pl-cx 12.7 F25', ( #198, #175 ), #21 ) ;
#52 = DIRECTION ( 'NONE',  ( 1.000000000000000000, 0.0000000000000000000, 0.0000000000000000000 ) ) ;
#53 = DIRECTION ( 'NONE',  ( 0.0000000000000000000, -1.000000000000000000, 3.316870890969038500E-016 ) ) ;
#54 = APPROVAL_DATE_TIME ( #65, #13 ) ;
#55 = DIRECTION ( 'NONE',  ( -0.0000000000000000000, -0.0000000000000000000, -1.000000000000000000 ) ) ;
#56 = CARTESIAN_POINT ( 'NONE',  ( -6.902370596863463900, -2.486639941139156200, 1.497912367413477300 ) ) ;
#57 = SECURITY_CLASSIFICATION ( '', '', #163 ) ;
#58 = CARTESIAN_POINT ( 'NONE',  ( 0.0000000000000000000, 0.0000000000000000000, 0.0000000000000000000 ) ) ;
#59 = VERTEX_POINT ( 'NONE', #206 ) ;
#60 = ADVANCED_FACE ( 'NONE', ( #214 ), #98, .T. ) ;
#61 = APPLICATION_CONTEXT ( 'configuration controlled 3d designs of mechanical parts and assemblies' ) ;
#62 =( BOUNDED_SURFACE ( )  B_SPLINE_SURFACE ( 3, 3, ( 
 ( #87, #129, #146, #47 ),
 ( #147, #130, #48, #208 ),
 ( #134, #116, #71, #10 ),
 ( #102, #188, #189, #174 ) ),
 .UNSPECIFIED., .F., .F., .F. ) 
 B_SPLINE_SURFACE_WITH_KNOTS ( ( 4, 4 ),
 ( 4, 4 ),
 ( 0.0000000000000000000, 1.000000000000000000 ),
 ( 0.0000000000000000000, 1.000000000000000000 ),
 .UNSPECIFIED. ) 
 GEOMETRIC_REPRESENTATION_ITEM ( )  RATIONAL_B_SPLINE_SURFACE ( (
 ( 1.000000000000000000, 0.9644280698437693900, 0.9644280698437693900, 1.000000000000000000),
 ( 0.8599120608540571400, 0.8293233290848562900, 0.8293233290848562900, 0.8599120608540571400),
 ( 0.8599120608540571400, 0.8293233290848562900, 0.8293233290848562900, 0.8599120608540571400),
 ( 1.000000000000000000, 0.9644280698437693900, 0.9644280698437693900, 1.000000000000000000) ) ) 
 REPRESENTATION_ITEM ( '' )  SURFACE ( )  );
#63 = LINE ( 'NONE', #212, #97 ) ;
#64 = ADVANCED_FACE ( 'NONE', ( #144 ), #62, .T. ) ;
#65 = DATE_AND_TIME ( #43, #225 ) ;
#66 = ORIENTED_EDGE ( 'NONE', *, *, #123, .F. ) ;
#67 = DIRECTION ( 'NONE',  ( 1.000000000000000000, 0.0000000000000000000, 0.0000000000000000000 ) ) ;
#68 = CC_DESIGN_APPROVAL ( #5, ( #86 ) ) ;
#69 = ORIENTED_EDGE ( 'NONE', *, *, #84, .T. ) ;
#70 = CARTESIAN_POINT ( 'NONE',  ( -4.905773265209798100, -2.486639941139156200, -0.03981581387244438600 ) ) ;
#71 = CARTESIAN_POINT ( 'NONE',  ( 4.905773265209797200, 2.486639941139158000, -0.03981581387244460100 ) ) ;
#72 = PERSON_AND_ORGANIZATION ( #49, #115 ) ;
#73 = CARTESIAN_POINT ( 'NONE',  ( -5.041322357129913300, -6.414875029160952200, 3.914310788637354900 ) ) ;
#74 = APPROVAL_ROLE ( '' ) ;
#75 = ORIENTED_EDGE ( 'NONE', *, *, #127, .F. ) ;
#76 = CARTESIAN_POINT ( 'NONE',  ( -3.469446951953614200E-015, 2.486639941139158000, -0.8520172644230698000 ) ) ;
#77 = PERSON_AND_ORGANIZATION_ROLE ( 'classification_officer' ) ;
#78 = PERSON_AND_ORGANIZATION_ROLE ( 'design_owner' ) ;
#79 = LOCAL_TIME ( 11, 2, 22.00000000000000000, #89 ) ;
#80 = CARTESIAN_POINT ( 'NONE',  ( -2.520120803510707700, -2.486639941139156200, -0.8520172644230703500 ) ) ;
#81 = COORDINATED_UNIVERSAL_TIME_OFFSET ( 2, 0, .AHEAD. ) ;
#82 = VERTEX_POINT ( 'NONE', #113 ) ;
#83 = CC_DESIGN_SECURITY_CLASSIFICATION ( #57, ( #109 ) ) ;
#84 = EDGE_CURVE ( 'NONE', #118, #168, #107, .T. ) ;
#85 = PERSON_AND_ORGANIZATION ( #49, #115 ) ;
#86 = PRODUCT_DEFINITION ( 'UNKNOWN', '', #109, #151 ) ;
#87 = CARTESIAN_POINT ( 'NONE',  ( 8.881784197001250400E-016, -6.414875029160954000, 2.197979765199843600 ) ) ;
#88 = DIRECTION ( 'NONE',  ( -0.0000000000000000000, -0.0000000000000000000, -1.000000000000000000 ) ) ;
#89 = COORDINATED_UNIVERSAL_TIME_OFFSET ( 2, 0, .AHEAD. ) ;
#90 = DIRECTION ( 'NONE',  ( -0.0000000000000000000, -0.0000000000000000000, -1.000000000000000000 ) ) ;
#91 = CARTESIAN_POINT ( 'NONE',  ( 2.498001805406600200E-016, 1.221245327087670000E-015, 2.148014677587549900 ) ) ;
#92 = CYLINDRICAL_SURFACE ( 'NONE', #139, 6.349999999999999600 ) ;
#93 = APPROVAL_ROLE ( '' ) ;
#94 = LINE ( 'NONE', #105, #39 ) ;
#95 =( BOUNDED_SURFACE ( )  B_SPLINE_SURFACE ( 3, 3, ( 
 ( #73, #227, #31, #158 ),
 ( #56, #70, #80, #177 ),
 ( #215, #141, #124, #76 ),
 ( #232, #196, #217, #234 ) ),
 .UNSPECIFIED., .F., .F., .T. ) 
 B_SPLINE_SURFACE_WITH_KNOTS ( ( 4, 4 ),
 ( 4, 4 ),
 ( 0.0000000000000000000, 1.000000000000000000 ),
 ( 0.0000000000000000000, 1.000000000000000000 ),
 .UNSPECIFIED. ) 
 GEOMETRIC_REPRESENTATION_ITEM ( )  RATIONAL_B_SPLINE_SURFACE ( (
 ( 1.000000000000000000, 0.9644280698437693900, 0.9644280698437693900, 1.000000000000000000),
 ( 0.8599120608540571400, 0.8293233290848562900, 0.8293233290848562900, 0.8599120608540571400),
 ( 0.8599120608540571400, 0.8293233290848562900, 0.8293233290848562900, 0.8599120608540571400),
 ( 1.000000000000000000, 0.9644280698437693900, 0.9644280698437693900, 1.000000000000000000) ) ) 
 REPRESENTATION_ITEM ( '' )  SURFACE ( )  );
#96 = DATE_AND_TIME ( #191, #36 ) ;
#97 = VECTOR ( 'NONE', #8, 1000.000000000000000 ) ;
#98 = PLANE ( 'NONE',  #184 ) ;
#99 = EDGE_CURVE ( 'NONE', #82, #168, #9, .T. ) ;
#100 = DIRECTION ( 'NONE',  ( 0.0000000000000000000, 0.0000000000000000000, 1.000000000000000000 ) ) ;
#101 = CYLINDRICAL_SURFACE ( 'NONE', #152, 6.349999999999999600 ) ;
#102 = CARTESIAN_POINT ( 'NONE',  ( 8.881784197001250400E-016, 6.414875029160953100, 2.197979765199845400 ) ) ;
#103 = CC_DESIGN_APPROVAL ( #120, ( #109 ) ) ;
#104 = AXIS2_PLACEMENT_3D ( 'NONE', #153, #157, #53 ) ;
#105 = CARTESIAN_POINT ( 'NONE',  ( 6.349999999999999600, 1.221245327087670000E-015, 2.148014677587549900 ) ) ;
#106 = COORDINATED_UNIVERSAL_TIME_OFFSET ( 2, 0, .AHEAD. ) ;
#107 = CIRCLE ( 'NONE', #202, 6.349999999999999600 ) ;
#108 = ORIENTED_EDGE ( 'NONE', *, *, #150, .F. ) ;
#109 = PRODUCT_DEFINITION_FORMATION_WITH_SPECIFIED_SOURCE ( 'ANY', '', #27, .NOT_KNOWN. ) ;
#110 = CALENDAR_DATE ( 2019, 2, 1 ) ;
#111 = FACE_OUTER_BOUND ( 'NONE', #200, .T. ) ;
#112 = DIRECTION ( 'NONE',  ( 0.0000000000000000000, 0.0000000000000000000, 1.000000000000000000 ) ) ;
#113 = CARTESIAN_POINT ( 'NONE',  ( 8.881784197001250400E-016, -6.349999999999998800, 2.148014677587549500 ) ) ;
#114 = CARTESIAN_POINT ( 'NONE',  ( 2.498001805406600200E-016, 1.221245327087670000E-015, 4.099999999999999600 ) ) ;
#115 = ORGANIZATION ( 'UNSPECIFIED', 'UNSPECIFIED', '' ) ;
#116 = CARTESIAN_POINT ( 'NONE',  ( 2.520120803510707700, 2.486639941139157500, -0.8520172644230699100 ) ) ;
#117 = PERSON_AND_ORGANIZATION ( #49, #115 ) ;
#118 = VERTEX_POINT ( 'NONE', #29 ) ;
#119 = MECHANICAL_CONTEXT ( 'NONE', #61, 'mechanical' ) ;
#120 = APPROVAL ( #179, 'UNSPECIFIED' ) ;
#121 = DIRECTION ( 'NONE',  ( 0.0000000000000000000, 0.0000000000000000000, 1.000000000000000000 ) ) ;
#122 = PERSON_AND_ORGANIZATION ( #49, #115 ) ;
#123 = EDGE_CURVE ( 'NONE', #168, #221, #165, .T. ) ;
#124 = CARTESIAN_POINT ( 'NONE',  ( -2.520120803510710300, 2.486639941139158000, -0.8520172644230688000 ) ) ;
#125 = ADVANCED_FACE ( 'NONE', ( #126 ), #101, .T. ) ;
#126 = FACE_OUTER_BOUND ( 'NONE', #155, .T. ) ;
#127 = EDGE_CURVE ( 'NONE', #221, #82, #233, .T. ) ;
#128 = PERSON_AND_ORGANIZATION ( #49, #115 ) ;
#129 = CARTESIAN_POINT ( 'NONE',  ( 1.840634485082552700, -6.414875029160954000, 2.197979765199843600 ) ) ;
#130 = CARTESIAN_POINT ( 'NONE',  ( 2.520120803510707700, -2.486639941139157500, -0.8520172644230712400 ) ) ;
#131 = CARTESIAN_POINT ( 'NONE',  ( 2.498001805406600200E-016, 1.221245327087670000E-015, 2.148014677587549900 ) ) ;
#132 = ORIENTED_EDGE ( 'NONE', *, *, #25, .T. ) ;
#133 = AXIS2_PLACEMENT_3D ( 'NONE', #114, #88, #67 ) ;
#134 = CARTESIAN_POINT ( 'NONE',  ( 8.881784197001250400E-016, 2.486639941139157500, -0.8520172644230698000 ) ) ;
#135 = CARTESIAN_POINT ( 'NONE',  ( 8.881784197001250400E-016, 6.349999999999997900, 2.148014677587550400 ) ) ;
#136 = CARTESIAN_POINT ( 'NONE',  ( 2.498001805406600200E-016, 1.221245327087670000E-015, 4.099999999999999600 ) ) ;
#137 = DATE_AND_TIME ( #110, #23 ) ;
#138 = ORIENTED_EDGE ( 'NONE', *, *, #204, .F. ) ;
#139 = AXIS2_PLACEMENT_3D ( 'NONE', #131, #112, #185 ) ;
#140 = CARTESIAN_POINT ( 'NONE',  ( 2.498001805406600200E-016, 1.221245327087670000E-015, 2.148014677587549900 ) ) ;
#141 = CARTESIAN_POINT ( 'NONE',  ( -4.905773265209798100, 2.486639941139158000, -0.03981581387244351900 ) ) ;
#142 = DIRECTION ( 'NONE',  ( 1.000000000000000000, 0.0000000000000000000, 0.0000000000000000000 ) ) ;
#143 = AXIS2_PLACEMENT_3D ( 'NONE', #156, #90, #190 ) ;
#144 = FACE_OUTER_BOUND ( 'NONE', #197, .T. ) ;
#145 = ORIENTED_EDGE ( 'NONE', *, *, #166, .F. ) ;
#146 = CARTESIAN_POINT ( 'NONE',  ( 3.583056588145348000, -6.414875029160953100, 2.791191803541402300 ) ) ;
#147 = CARTESIAN_POINT ( 'NONE',  ( 8.881784197001250400E-016, -2.486639941139157500, -0.8520172644230712400 ) ) ;
#148 = CIRCLE ( 'NONE', #170, 6.349999999999999600 ) ;
#149 = EDGE_LOOP ( 'NONE', ( #235, #15, #69 ) ) ;
#150 = EDGE_CURVE ( 'NONE', #118, #46, #63, .T. ) ;
#151 = DESIGN_CONTEXT ( 'detailed design', #18, 'design' ) ;
#152 = AXIS2_PLACEMENT_3D ( 'NONE', #193, #30, #12 ) ;
#153 = CARTESIAN_POINT ( 'NONE',  ( 8.881784197001250400E-016, -8.881784197001250400E-016, 10.46000000000000100 ) ) ;
#154 = APPROVAL_PERSON_ORGANIZATION ( #3, #13, #74 ) ;
#155 = EDGE_LOOP ( 'NONE', ( #4, #7, #207, #192, #66 ) ) ;
#156 = CARTESIAN_POINT ( 'NONE',  ( 2.498001805406600200E-016, 1.221245327087670000E-015, 2.148014677587549900 ) ) ;
#157 = DIRECTION ( 'NONE',  ( 1.000000000000000000, 0.0000000000000000000, 0.0000000000000000000 ) ) ;
#158 = CARTESIAN_POINT ( 'NONE',  ( 0.0000000000000000000, -6.414875029160952200, 2.197979765199844100 ) ) ;
#159 = CIRCLE ( 'NONE', #133, 6.349999999999999600 ) ;
#160 =( NAMED_UNIT ( * ) PLANE_ANGLE_UNIT ( ) SI_UNIT ( $, .RADIAN. ) );
#161 = APPROVAL_STATUS ( 'not_yet_approved' ) ;
#162 = PERSON_AND_ORGANIZATION ( #49, #115 ) ;
#163 = SECURITY_CLASSIFICATION_LEVEL ( 'unclassified' ) ;
#164 = PRODUCT_RELATED_PRODUCT_CATEGORY ( 'detail', '', ( #27 ) ) ;
#165 = CIRCLE ( 'NONE', #223, 6.349999999999999600 ) ;
#166 = EDGE_CURVE ( 'NONE', #46, #59, #148, .T. ) ;
#167 = COORDINATED_UNIVERSAL_TIME_OFFSET ( 2, 0, .AHEAD. ) ;
#168 = VERTEX_POINT ( 'NONE', #135 ) ;
#169 = CARTESIAN_POINT ( 'NONE',  ( -6.349999999999999600, 1.998896044546239400E-015, 4.099999999999999600 ) ) ;
#170 = AXIS2_PLACEMENT_3D ( 'NONE', #136, #172, #194 ) ;
#171 = DATE_AND_TIME ( #222, #79 ) ;
#172 = DIRECTION ( 'NONE',  ( -0.0000000000000000000, -0.0000000000000000000, -1.000000000000000000 ) ) ;
#173 = DIRECTION ( 'NONE',  ( -0.0000000000000000000, -0.0000000000000000000, -1.000000000000000000 ) ) ;
#174 = CARTESIAN_POINT ( 'NONE',  ( 5.041322357129909700, 6.414875029160954000, 3.914310788637354900 ) ) ;
#175 = AXIS2_PLACEMENT_3D ( 'NONE', #58, #121, #142 ) ;
#176 = APPROVAL_STATUS ( 'not_yet_approved' ) ;
#177 = CARTESIAN_POINT ( 'NONE',  ( -8.673617379884035500E-016, -2.486639941139156700, -0.8520172644230706900 ) ) ;
#178 = EDGE_CURVE ( 'NONE', #221, #59, #94, .T. ) ;
#179 = APPROVAL_STATUS ( 'not_yet_approved' ) ;
#180 = DATE_AND_TIME ( #224, #210 ) ;
#181 = APPLICATION_PROTOCOL_DEFINITION ( 'international standard', 'config_control_design', 1994, #61 ) ;
#182 = ORIENTED_EDGE ( 'NONE', *, *, #25, .F. ) ;
#183 = CC_DESIGN_PERSON_AND_ORGANIZATION_ASSIGNMENT ( #85, #78, ( #27 ) ) ;
#184 = AXIS2_PLACEMENT_3D ( 'NONE', #186, #26, #6 ) ;
#185 = DIRECTION ( 'NONE',  ( 1.000000000000000000, 0.0000000000000000000, 0.0000000000000000000 ) ) ;
#186 = CARTESIAN_POINT ( 'NONE',  ( 0.0000000000000000000, 13.15799999999999900, 4.099999999999999600 ) ) ;
#187 = UNCERTAINTY_MEASURE_WITH_UNIT (LENGTH_MEASURE( 1.000000000000000100E-005 ), #216, 'distance_accuracy_value', 'NONE');
#188 = CARTESIAN_POINT ( 'NONE',  ( 1.840634485082551600, 6.414875029160953100, 2.197979765199845400 ) ) ;
#189 = CARTESIAN_POINT ( 'NONE',  ( 3.583056588145344400, 6.414875029160954000, 2.791191803541403600 ) ) ;
#190 = DIRECTION ( 'NONE',  ( 1.000000000000000000, 0.0000000000000000000, 0.0000000000000000000 ) ) ;
#191 = CALENDAR_DATE ( 2019, 2, 1 ) ;
#192 = ORIENTED_EDGE ( 'NONE', *, *, #178, .F. ) ;
#193 = CARTESIAN_POINT ( 'NONE',  ( 2.498001805406600200E-016, 1.221245327087670000E-015, 2.148014677587549900 ) ) ;
#194 = DIRECTION ( 'NONE',  ( 1.000000000000000000, 0.0000000000000000000, 0.0000000000000000000 ) ) ;
#195 = PRODUCT_DEFINITION_SHAPE ( 'NONE', 'NONE',  #86 ) ;
#196 = CARTESIAN_POINT ( 'NONE',  ( -3.583056588145345300, 6.414875029160954000, 2.791191803541403600 ) ) ;
#197 = EDGE_LOOP ( 'NONE', ( #20, #2, #50 ) ) ;
#198 = MANIFOLD_SOLID_BREP ( 'Imported1', #16 ) ;
#199 = SHAPE_DEFINITION_REPRESENTATION ( #195, #51 ) ;
#200 = EDGE_LOOP ( 'NONE', ( #108, #138, #75, #205, #132 ) ) ;
#201 = CC_DESIGN_PERSON_AND_ORGANIZATION_ASSIGNMENT ( #128, #219, ( #86 ) ) ;
#202 = AXIS2_PLACEMENT_3D ( 'NONE', #11, #173, #228 ) ;
#203 = FACE_OUTER_BOUND ( 'NONE', #149, .T. ) ;
#204 = EDGE_CURVE ( 'NONE', #82, #118, #45, .T. ) ;
#205 = ORIENTED_EDGE ( 'NONE', *, *, #178, .T. ) ;
#206 = CARTESIAN_POINT ( 'NONE',  ( 6.349999999999999600, 1.221245327087670000E-015, 4.099999999999999600 ) ) ;
#207 = ORIENTED_EDGE ( 'NONE', *, *, #166, .T. ) ;
#208 = CARTESIAN_POINT ( 'NONE',  ( 6.902370596863464800, -2.486639941139157100, 1.497912367413476000 ) ) ;
#209 = CARTESIAN_POINT ( 'NONE',  ( 6.349999999999999600, 1.221245327087670000E-015, 2.148014677587549900 ) ) ;
#210 = LOCAL_TIME ( 11, 2, 22.00000000000000000, #167 ) ;
#211 = DIRECTION ( 'NONE',  ( -0.0000000000000000000, -0.0000000000000000000, -1.000000000000000000 ) ) ;
#212 = CARTESIAN_POINT ( 'NONE',  ( -6.349999999999999600, 1.998896044546239400E-015, 2.148014677587549900 ) ) ;
#213 = CC_DESIGN_DATE_AND_TIME_ASSIGNMENT ( #171, #33, ( #86 ) ) ;
#214 = FACE_OUTER_BOUND ( 'NONE', #40, .T. ) ;
#215 = CARTESIAN_POINT ( 'NONE',  ( -6.902370596863463900, 2.486639941139158900, 1.497912367413478400 ) ) ;
#216 =( LENGTH_UNIT ( ) NAMED_UNIT ( * ) SI_UNIT ( .MILLI., .METRE. ) );
#217 = CARTESIAN_POINT ( 'NONE',  ( -1.840634485082553300, 6.414875029160954000, 2.197979765199845800 ) ) ;
#218 = PERSON_AND_ORGANIZATION ( #49, #115 ) ;
#219 = PERSON_AND_ORGANIZATION_ROLE ( 'creator' ) ;
#220 = ADVANCED_FACE ( 'NONE', ( #203 ), #95, .T. ) ;
#221 = VERTEX_POINT ( 'NONE', #209 ) ;
#222 = CALENDAR_DATE ( 2019, 2, 1 ) ;
#223 = AXIS2_PLACEMENT_3D ( 'NONE', #91, #55, #230 ) ;
#224 = CALENDAR_DATE ( 2019, 2, 1 ) ;
#225 = LOCAL_TIME ( 11, 2, 22.00000000000000000, #106 ) ;
#226 = AXIS2_PLACEMENT_3D ( 'NONE', #140, #211, #52 ) ;
#227 = CARTESIAN_POINT ( 'NONE',  ( -3.583056588145347100, -6.414875029160951300, 2.791191803541402300 ) ) ;
#228 = DIRECTION ( 'NONE',  ( 1.000000000000000000, 0.0000000000000000000, 0.0000000000000000000 ) ) ;
#229 = APPROVAL_DATE_TIME ( #137, #120 ) ;
#230 = DIRECTION ( 'NONE',  ( 1.000000000000000000, 0.0000000000000000000, 0.0000000000000000000 ) ) ;
#231 = APPROVAL_ROLE ( '' ) ;
#232 = CARTESIAN_POINT ( 'NONE',  ( -5.041322357129910600, 6.414875029160954000, 3.914310788637355800 ) ) ;
#233 = CIRCLE ( 'NONE', #226, 6.349999999999999600 ) ;
#234 = CARTESIAN_POINT ( 'NONE',  ( -2.602085213965210600E-015, 6.414875029160954000, 2.197979765199844900 ) ) ;
#235 = ORIENTED_EDGE ( 'NONE', *, *, #99, .F. ) ;
ENDSEC;
END-ISO-10303-21;
