ISO-10303-21;
HEADER;
FILE_DESCRIPTION (( 'STEP AP203' ),
    '1' );
FILE_NAME ('110-1755E UVFS pl-cx 76.2 F2000.STEP',
    '2018-12-13T15:12:28',
    ( '' ),
    ( '' ),
    'SwSTEP 2.0',
    'SolidWorks 2017',
    '' );
FILE_SCHEMA (( 'CONFIG_CONTROL_DESIGN' ));
ENDSEC;

DATA;
#1 = PERSON_AND_ORGANIZATION ( #114, #35 ) ;
#2 = AXIS2_PLACEMENT_3D ( 'NONE', #171, #169, #185 ) ;
#3 = LINE ( 'NONE', #115, #205 ) ;
#4 = VERTEX_POINT ( 'NONE', #150 ) ;
#5 = DIRECTION ( 'NONE',  ( 1.000000000000000000, 0.0000000000000000000, -2.845674993400274200E-018 ) ) ;
#6 = CARTESIAN_POINT ( 'NONE',  ( 12.78397244625641000, -12.85934973269370700, -0.2604877495932659300 ) ) ;
#7 = CARTESIAN_POINT ( 'NONE',  ( 38.29703481166284700, -38.55695138588144000, 1.552206028302326700 ) ) ;
#8 = PERSON_AND_ORGANIZATION ( #114, #35 ) ;
#9 = CARTESIAN_POINT ( 'NONE',  ( -5.584894225396830900E-013, -38.10000000000022900, 0.7626255633599040600 ) ) ;
#10 = APPLICATION_PROTOCOL_DEFINITION ( 'international standard', 'config_control_design', 1994, #125 ) ;
#11 = CARTESIAN_POINT ( 'NONE',  ( 0.0000000000000000000, 77.92799999999999700, 6.000000000000000000 ) ) ;
#12 = AXIS2_PLACEMENT_3D ( 'NONE', #42, #27, #172 ) ;
#13 = PERSON_AND_ORGANIZATION ( #114, #35 ) ;
#14 = PLANE ( 'NONE',  #56 ) ;
#15 =( NAMED_UNIT ( * ) PLANE_ANGLE_UNIT ( ) SI_UNIT ( $, .RADIAN. ) );
#16 = VECTOR ( 'NONE', #31, 1000.000000000000000 ) ;
#17 = PERSON_AND_ORGANIZATION ( #114, #35 ) ;
#18 = EDGE_CURVE ( 'NONE', #232, #100, #3, .T. ) ;
#19 = LOCAL_TIME ( 17, 12, 28.00000000000000000, #226 ) ;
#20 = ORIENTED_EDGE ( 'NONE', *, *, #233, .T. ) ;
#21 = ORIENTED_EDGE ( 'NONE', *, *, #111, .F. ) ;
#22 = FACE_OUTER_BOUND ( 'NONE', #165, .T. ) ;
#23 = AXIS2_PLACEMENT_3D ( 'NONE', #231, #81, #228 ) ;
#24 = DIRECTION ( 'NONE',  ( -2.913971193241879900E-018, -1.358596498406960000E-034, -1.000000000000000000 ) ) ;
#25 = DIRECTION ( 'NONE',  ( 1.000000000000000000, 0.0000000000000000000, -2.845674993400274200E-018 ) ) ;
#26 = CARTESIAN_POINT ( 'NONE',  ( -9.310611848614719700E-015, -1.776356839400250100E-015, 6.000000000000000000 ) ) ;
#27 = DIRECTION ( 'NONE',  ( 1.000000000000000000, -2.441640666974649900E-016, -4.577765423489080400E-016 ) ) ;
#28 = PERSON_AND_ORGANIZATION_ROLE ( 'design_supplier' ) ;
#29 = APPROVAL_ROLE ( '' ) ;
#30 = COORDINATED_UNIVERSAL_TIME_OFFSET ( 2, 0, .AHEAD. ) ;
#31 = DIRECTION ( 'NONE',  ( 2.913971193241879900E-018, 1.358596498406960000E-034, 1.000000000000000000 ) ) ;
#32 = PERSON_AND_ORGANIZATION_ROLE ( 'creator' ) ;
#33 = AXIS2_PLACEMENT_3D ( 'NONE', #108, #54, #194 ) ;
#34 =( BOUNDED_SURFACE ( )  B_SPLINE_SURFACE ( 3, 3, ( 
 ( #98, #80, #102, #7 ),
 ( #118, #6, #154, #151 ),
 ( #46, #222, #62, #186 ),
 ( #206, #220, #119, #146 ) ),
 .UNSPECIFIED., .F., .F., .F. ) 
 B_SPLINE_SURFACE_WITH_KNOTS ( ( 4, 4 ),
 ( 4, 4 ),
 ( 0.0000000000000000000, 1.000000000000000000 ),
 ( 0.0000000000000000000, 1.000000000000000000 ),
 .UNSPECIFIED. ) 
 GEOMETRIC_REPRESENTATION_ITEM ( )  RATIONAL_B_SPLINE_SURFACE ( (
 ( 1.000000000000000000, 0.9998648808762599100, 0.9998648808762599100, 1.000000000000000000),
 ( 0.9994531135545134900, 0.9993180683255906700, 0.9993180683255906700, 0.9994531135545134900),
 ( 0.9994531135545134900, 0.9993180683255906700, 0.9993180683255906700, 0.9994531135545134900),
 ( 1.000000000000000000, 0.9998648808762599100, 0.9998648808762599100, 1.000000000000000000) ) ) 
 REPRESENTATION_ITEM ( '' )  SURFACE ( )  );
#35 = ORGANIZATION ( 'UNSPECIFIED', 'UNSPECIFIED', '' ) ;
#36 = EDGE_LOOP ( 'NONE', ( #170, #109, #20, #149, #235 ) ) ;
#37 = LINE ( 'NONE', #214, #16 ) ;
#38 = ORIENTED_EDGE ( 'NONE', *, *, #45, .T. ) ;
#39 = APPROVAL_PERSON_ORGANIZATION ( #17, #69, #29 ) ;
#40 = CIRCLE ( 'NONE', #23, 38.10000000000000100 ) ;
#41 = DIRECTION ( 'NONE',  ( 2.913971193241879900E-018, 1.358596498406960000E-034, 1.000000000000000000 ) ) ;
#42 = CARTESIAN_POINT ( 'NONE',  ( -1.136868377216160000E-013, 1.705302565824239900E-013, 952.1000000000000200 ) ) ;
#43 = DATE_AND_TIME ( #130, #99 ) ;
#44 = EDGE_LOOP ( 'NONE', ( #68, #117 ) ) ;
#45 = EDGE_CURVE ( 'NONE', #232, #71, #155, .T. ) ;
#46 = CARTESIAN_POINT ( 'NONE',  ( -5.465153377475250300E-013, 12.85934973269374900, -0.2604877495933630700 ) ) ;
#47 = CARTESIAN_POINT ( 'NONE',  ( -38.29703481166285400, 38.55695138588148300, 1.552206028302194300 ) ) ;
#48 = CARTESIAN_POINT ( 'NONE',  ( -9.325873406851310200E-015, -1.776356839400250100E-015, 0.7626255633598770800 ) ) ;
#49 = FACE_OUTER_BOUND ( 'NONE', #36, .T. ) ;
#50 = PERSON_AND_ORGANIZATION_ROLE ( 'creator' ) ;
#51 = SECURITY_CLASSIFICATION ( '', '', #143 ) ;
#52 = CARTESIAN_POINT ( 'NONE',  ( -38.10000000000000900, 2.889547465351166000E-015, 0.7626255633598771900 ) ) ;
#53 = ORIENTED_EDGE ( 'NONE', *, *, #147, .F. ) ;
#54 = DIRECTION ( 'NONE',  ( 0.0000000000000000000, 0.0000000000000000000, 1.000000000000000000 ) ) ;
#55 = DATE_AND_TIME ( #70, #198 ) ;
#56 = AXIS2_PLACEMENT_3D ( 'NONE', #11, #176, #197 ) ;
#57 = CYLINDRICAL_SURFACE ( 'NONE', #133, 38.10000000000000100 ) ;
#58 = ORIENTED_EDGE ( 'NONE', *, *, #78, .T. ) ;
#59 = CC_DESIGN_PERSON_AND_ORGANIZATION_ASSIGNMENT ( #74, #32, ( #159 ) ) ;
#60 = DATE_AND_TIME ( #164, #216 ) ;
#61 = AXIS2_PLACEMENT_3D ( 'NONE', #64, #124, #105 ) ;
#62 = CARTESIAN_POINT ( 'NONE',  ( 25.56535385378109700, 12.85934973269374200, -0.003114825532416648000 ) ) ;
#63 = CARTESIAN_POINT ( 'NONE',  ( -38.29703481166286100, -38.55695138588142600, 1.552206028302305400 ) ) ;
#64 = CARTESIAN_POINT ( 'NONE',  ( -9.325873406851310200E-015, -1.776356839400250100E-015, 0.7626255633598770800 ) ) ;
#65 = CC_DESIGN_PERSON_AND_ORGANIZATION_ASSIGNMENT ( #160, #50, ( #157 ) ) ;
#66 =( NAMED_UNIT ( * ) SI_UNIT ( $, .STERADIAN. ) SOLID_ANGLE_UNIT ( ) );
#67 = FACE_OUTER_BOUND ( 'NONE', #44, .T. ) ;
#68 = ORIENTED_EDGE ( 'NONE', *, *, #120, .F. ) ;
#69 = APPROVAL ( #83, 'UNSPECIFIED' ) ;
#70 = CALENDAR_DATE ( 2018, 13, 12 ) ;
#71 = VERTEX_POINT ( 'NONE', #224 ) ;
#72 = ADVANCED_FACE ( 'NONE', ( #182 ), #57, .T. ) ;
#73 = CC_DESIGN_APPROVAL ( #69, ( #51 ) ) ;
#74 = PERSON_AND_ORGANIZATION ( #114, #35 ) ;
#75 = VERTEX_POINT ( 'NONE', #121 ) ;
#76 = CARTESIAN_POINT ( 'NONE',  ( -7.840950111415168100E-013, 38.55695138588147600, 0.7810358771212584400 ) ) ;
#77 = CARTESIAN_POINT ( 'NONE',  ( -38.33896319540556900, -12.85934973269369600, 0.5115266945776381100 ) ) ;
#78 = EDGE_CURVE ( 'NONE', #183, #71, #227, .T. ) ;
#79 = DIRECTION ( 'NONE',  ( 1.000000000000000000, 0.0000000000000000000, 0.0000000000000000000 ) ) ;
#80 = CARTESIAN_POINT ( 'NONE',  ( 12.76999159602446300, -38.55695138588143300, 0.7810358771214105400 ) ) ;
#81 = DIRECTION ( 'NONE',  ( -2.913971193241879900E-018, -1.358596498406960000E-034, -1.000000000000000000 ) ) ;
#82 = PERSON_AND_ORGANIZATION_ROLE ( 'design_owner' ) ;
#83 = APPROVAL_STATUS ( 'not_yet_approved' ) ;
#84 = DIRECTION ( 'NONE',  ( -2.913971193241879900E-018, -1.358596498406960000E-034, -1.000000000000000000 ) ) ;
#85 = CC_DESIGN_PERSON_AND_ORGANIZATION_ASSIGNMENT ( #1, #229, ( #51 ) ) ;
#86 = APPROVAL_ROLE ( '' ) ;
#87 = CIRCLE ( 'NONE', #203, 38.10000000000000100 ) ;
#88 = CC_DESIGN_PERSON_AND_ORGANIZATION_ASSIGNMENT ( #90, #82, ( #89 ) ) ;
#89 = PRODUCT ( '110-1755E UVFS pl-cx 76.2 F2000', '110-1755E UVFS pl-cx 76.2 F2000', '', ( #177 ) ) ;
#90 = PERSON_AND_ORGANIZATION ( #114, #35 ) ;
#91 = CC_DESIGN_SECURITY_CLASSIFICATION ( #51, ( #157 ) ) ;
#92 = UNCERTAINTY_MEASURE_WITH_UNIT (LENGTH_MEASURE( 1.000000000000000100E-005 ), #174, 'distance_accuracy_value', 'NONE');
#93 = DIRECTION ( 'NONE',  ( 2.913971193241879900E-018, 1.358596498406960000E-034, 1.000000000000000000 ) ) ;
#94 = ADVANCED_FACE ( 'NONE', ( #49 ), #138, .T. ) ;
#95 = DESIGN_CONTEXT ( 'detailed design', #145, 'design' ) ;
#96 = CARTESIAN_POINT ( 'NONE',  ( -9.325873406851310200E-015, -1.776356839400250100E-015, 0.7626255633598769700 ) ) ;
#97 = CARTESIAN_POINT ( 'NONE',  ( -25.56535385378153400, -12.85934973269369900, -0.003114825532313539900 ) ) ;
#98 = CARTESIAN_POINT ( 'NONE',  ( -5.585925658385655900E-013, -38.55695138588143300, 0.7810358771214165300 ) ) ;
#99 = LOCAL_TIME ( 17, 12, 28.00000000000000000, #110 ) ;
#100 = VERTEX_POINT ( 'NONE', #141 ) ;
#101 = CARTESIAN_POINT ( 'NONE',  ( -7.910339050454238300E-013, -12.85934973269370700, -0.2604877495933065100 ) ) ;
#102 = CARTESIAN_POINT ( 'NONE',  ( 25.53739498693754600, -38.55695138588144000, 1.038127332153844700 ) ) ;
#103 = DIRECTION ( 'NONE',  ( -2.913971193241879900E-018, -1.358596498406960000E-034, -1.000000000000000000 ) ) ;
#104 = APPROVAL_PERSON_ORGANIZATION ( #8, #163, #195 ) ;
#105 = DIRECTION ( 'NONE',  ( 1.000000000000000000, 0.0000000000000000000, -2.845674993400274200E-018 ) ) ;
#106 = APPLICATION_PROTOCOL_DEFINITION ( 'international standard', 'config_control_design', 1994, #145 ) ;
#107 =( GEOMETRIC_REPRESENTATION_CONTEXT ( 3 ) GLOBAL_UNCERTAINTY_ASSIGNED_CONTEXT ( ( #92 ) ) GLOBAL_UNIT_ASSIGNED_CONTEXT ( ( #174, #15, #66 ) ) REPRESENTATION_CONTEXT ( 'NONE', 'WORKASPACE' ) );
#108 = CARTESIAN_POINT ( 'NONE',  ( 0.0000000000000000000, 0.0000000000000000000, 0.0000000000000000000 ) ) ;
#109 = ORIENTED_EDGE ( 'NONE', *, *, #18, .T. ) ;
#110 = COORDINATED_UNIVERSAL_TIME_OFFSET ( 2, 0, .AHEAD. ) ;
#111 = EDGE_CURVE ( 'NONE', #183, #232, #199, .T. ) ;
#112 = PRODUCT_DEFINITION_SHAPE ( 'NONE', 'NONE',  #159 ) ;
#113 = APPROVAL_DATE_TIME ( #43, #193 ) ;
#114 = PERSON ( 'UNSPECIFIED', 'UNSPECIFIED', 'UNSPECIFIED', ('UNSPECIFIED'), ('UNSPECIFIED'), ('UNSPECIFIED') ) ;
#115 = CARTESIAN_POINT ( 'NONE',  ( -38.10000000000000900, 2.889547465351166000E-015, 0.7626255633598770800 ) ) ;
#116 = FACE_OUTER_BOUND ( 'NONE', #152, .T. ) ;
#117 = ORIENTED_EDGE ( 'NONE', *, *, #233, .F. ) ;
#118 = CARTESIAN_POINT ( 'NONE',  ( -5.527949199991639200E-013, -12.85934973269370300, -0.2604877495932601000 ) ) ;
#119 = CARTESIAN_POINT ( 'NONE',  ( 25.53739498693757100, 38.55695138588146900, 1.038127332153733700 ) ) ;
#120 = EDGE_CURVE ( 'NONE', #4, #100, #196, .T. ) ;
#121 = CARTESIAN_POINT ( 'NONE',  ( 38.09999999999999400, -1.776356839400250100E-015, 0.7626255633598769700 ) ) ;
#122 = MANIFOLD_SOLID_BREP ( 'Imported1', #136 ) ;
#123 = CARTESIAN_POINT ( 'NONE',  ( -25.53739498693800800, -38.55695138588142600, 1.038127332153844700 ) ) ;
#124 = DIRECTION ( 'NONE',  ( -2.913971193241879900E-018, -1.358596498406960000E-034, -1.000000000000000000 ) ) ;
#125 = APPLICATION_CONTEXT ( 'configuration controlled 3d designs of mechanical parts and assemblies' ) ;
#126 = COORDINATED_UNIVERSAL_TIME_OFFSET ( 2, 0, .AHEAD. ) ;
#127 = DATE_TIME_ROLE ( 'classification_date' ) ;
#128 = ORIENTED_EDGE ( 'NONE', *, *, #120, .T. ) ;
#129 = DATE_TIME_ROLE ( 'creation_date' ) ;
#130 = CALENDAR_DATE ( 2018, 13, 12 ) ;
#131 = CC_DESIGN_DATE_AND_TIME_ASSIGNMENT ( #60, #129, ( #159 ) ) ;
#132 = ADVANCED_FACE ( 'NONE', ( #22 ), #166, .T. ) ;
#133 = AXIS2_PLACEMENT_3D ( 'NONE', #96, #41, #25 ) ;
#134 = ADVANCED_FACE ( 'NONE', ( #116 ), #34, .T. ) ;
#135 = CC_DESIGN_APPROVAL ( #193, ( #159 ) ) ;
#136 = CLOSED_SHELL ( 'NONE', ( #134, #94, #132, #72, #162 ) ) ;
#137 = CC_DESIGN_APPROVAL ( #163, ( #157 ) ) ;
#138 = CYLINDRICAL_SURFACE ( 'NONE', #2, 38.10000000000000100 ) ;
#139 = CARTESIAN_POINT ( 'NONE',  ( -12.76999159602536000, 38.55695138588147600, 0.7810358771212673200 ) ) ;
#140 = CARTESIAN_POINT ( 'NONE',  ( -9.325873406851310200E-015, -1.776356839400250100E-015, 0.7626255633598770800 ) ) ;
#141 = CARTESIAN_POINT ( 'NONE',  ( -38.10000000000000900, 2.889547465351166000E-015, 6.000000000000000000 ) ) ;
#142 = APPROVAL_STATUS ( 'not_yet_approved' ) ;
#143 = SECURITY_CLASSIFICATION_LEVEL ( 'unclassified' ) ;
#144 = CC_DESIGN_DATE_AND_TIME_ASSIGNMENT ( #201, #127, ( #51 ) ) ;
#145 = APPLICATION_CONTEXT ( 'configuration controlled 3d designs of mechanical parts and assemblies' ) ;
#146 = CARTESIAN_POINT ( 'NONE',  ( 38.29703481166287600, 38.55695138588146900, 1.552206028302215700 ) ) ;
#147 = EDGE_CURVE ( 'NONE', #75, #183, #173, .T. ) ;
#148 = LOCAL_TIME ( 17, 12, 28.00000000000000000, #192 ) ;
#149 = ORIENTED_EDGE ( 'NONE', *, *, #181, .F. ) ;
#150 = CARTESIAN_POINT ( 'NONE',  ( 38.09999999999999400, -1.776356839400250100E-015, 6.000000000000000000 ) ) ;
#151 = CARTESIAN_POINT ( 'NONE',  ( 38.33896319540556900, -12.85934973269371400, 0.5115266945776593100 ) ) ;
#152 = EDGE_LOOP ( 'NONE', ( #178, #58, #158 ) ) ;
#153 = DIRECTION ( 'NONE',  ( -2.913971193241879900E-018, -1.358596498406960000E-034, -1.000000000000000000 ) ) ;
#154 = CARTESIAN_POINT ( 'NONE',  ( 25.56535385378108700, -12.85934973269371000, -0.003114825532313648800 ) ) ;
#155 = CIRCLE ( 'NONE', #184, 38.10000000000000100 ) ;
#156 = CARTESIAN_POINT ( 'NONE',  ( -7.910339050454240400E-013, -38.55695138588143300, 0.7810358771213696800 ) ) ;
#157 = PRODUCT_DEFINITION_FORMATION_WITH_SPECIFIED_SOURCE ( 'ANY', '', #89, .NOT_KNOWN. ) ;
#158 = ORIENTED_EDGE ( 'NONE', *, *, #161, .T. ) ;
#159 = PRODUCT_DEFINITION ( 'UNKNOWN', '', #157, #95 ) ;
#160 = PERSON_AND_ORGANIZATION ( #114, #35 ) ;
#161 = EDGE_CURVE ( 'NONE', #71, #75, #87, .T. ) ;
#162 = ADVANCED_FACE ( 'NONE', ( #67 ), #14, .T. ) ;
#163 = APPROVAL ( #142, 'UNSPECIFIED' ) ;
#164 = CALENDAR_DATE ( 2018, 13, 12 ) ;
#165 = EDGE_LOOP ( 'NONE', ( #221, #175, #38 ) ) ;
#166 =( BOUNDED_SURFACE ( )  B_SPLINE_SURFACE ( 3, 3, ( 
 ( #63, #123, #189, #156 ),
 ( #77, #97, #207, #101 ),
 ( #209, #208, #191, #190 ),
 ( #47, #219, #139, #76 ) ),
 .UNSPECIFIED., .F., .F., .F. ) 
 B_SPLINE_SURFACE_WITH_KNOTS ( ( 4, 4 ),
 ( 4, 4 ),
 ( 0.0000000000000000000, 1.000000000000000000 ),
 ( 0.0000000000000000000, 1.000000000000000000 ),
 .UNSPECIFIED. ) 
 GEOMETRIC_REPRESENTATION_ITEM ( )  RATIONAL_B_SPLINE_SURFACE ( (
 ( 1.000000000000000000, 0.9998648808762599100, 0.9998648808762599100, 1.000000000000000000),
 ( 0.9994531135545134900, 0.9993180683255906700, 0.9993180683255906700, 0.9994531135545134900),
 ( 0.9994531135545134900, 0.9993180683255906700, 0.9993180683255906700, 0.9994531135545134900),
 ( 1.000000000000000000, 0.9998648808762599100, 0.9998648808762599100, 1.000000000000000000) ) ) 
 REPRESENTATION_ITEM ( '' )  SURFACE ( )  );
#167 = CC_DESIGN_PERSON_AND_ORGANIZATION_ASSIGNMENT ( #13, #28, ( #157 ) ) ;
#168 = DIRECTION ( 'NONE',  ( 1.000000000000000000, 0.0000000000000000000, -2.845674993400274200E-018 ) ) ;
#169 = DIRECTION ( 'NONE',  ( 2.913971193241879900E-018, 1.358596498406960000E-034, 1.000000000000000000 ) ) ;
#170 = ORIENTED_EDGE ( 'NONE', *, *, #45, .F. ) ;
#171 = CARTESIAN_POINT ( 'NONE',  ( -9.325873406851310200E-015, -1.776356839400250100E-015, 0.7626255633598769700 ) ) ;
#172 = DIRECTION ( 'NONE',  ( -2.441640666974649900E-016, -1.000000000000000000, -2.332156337832489300E-016 ) ) ;
#173 = CIRCLE ( 'NONE', #61, 38.10000000000000100 ) ;
#174 =( LENGTH_UNIT ( ) NAMED_UNIT ( * ) SI_UNIT ( .MILLI., .METRE. ) );
#175 = ORIENTED_EDGE ( 'NONE', *, *, #111, .T. ) ;
#176 = DIRECTION ( 'NONE',  ( 0.0000000000000000000, 0.0000000000000000000, 1.000000000000000000 ) ) ;
#177 = MECHANICAL_CONTEXT ( 'NONE', #125, 'mechanical' ) ;
#178 = ORIENTED_EDGE ( 'NONE', *, *, #147, .T. ) ;
#179 = AXIS2_PLACEMENT_3D ( 'NONE', #140, #153, #5 ) ;
#180 = APPROVAL_DATE_TIME ( #217, #69 ) ;
#181 = EDGE_CURVE ( 'NONE', #75, #4, #37, .T. ) ;
#182 = FACE_OUTER_BOUND ( 'NONE', #200, .T. ) ;
#183 = VERTEX_POINT ( 'NONE', #9 ) ;
#184 = AXIS2_PLACEMENT_3D ( 'NONE', #48, #24, #168 ) ;
#185 = DIRECTION ( 'NONE',  ( 1.000000000000000000, 0.0000000000000000000, -2.845674993400274200E-018 ) ) ;
#186 = CARTESIAN_POINT ( 'NONE',  ( 38.33896319540558300, 12.85934973269373800, 0.5115266945775565100 ) ) ;
#187 = ORIENTED_EDGE ( 'NONE', *, *, #18, .F. ) ;
#188 = ORIENTED_EDGE ( 'NONE', *, *, #181, .T. ) ;
#189 = CARTESIAN_POINT ( 'NONE',  ( -12.76999159602536500, -38.55695138588143300, 0.7810358771213785600 ) ) ;
#190 = CARTESIAN_POINT ( 'NONE',  ( -7.910339050454238300E-013, 12.85934973269374600, -0.2604877495934101500 ) ) ;
#191 = CARTESIAN_POINT ( 'NONE',  ( -12.78397244625731100, 12.85934973269374900, -0.2604877495934009900 ) ) ;
#192 = COORDINATED_UNIVERSAL_TIME_OFFSET ( 2, 0, .AHEAD. ) ;
#193 = APPROVAL ( #225, 'UNSPECIFIED' ) ;
#194 = DIRECTION ( 'NONE',  ( 1.000000000000000000, 0.0000000000000000000, 0.0000000000000000000 ) ) ;
#195 = APPROVAL_ROLE ( '' ) ;
#196 = CIRCLE ( 'NONE', #213, 38.10000000000000100 ) ;
#197 = DIRECTION ( 'NONE',  ( 1.000000000000000000, 0.0000000000000000000, -0.0000000000000000000 ) ) ;
#198 = LOCAL_TIME ( 17, 12, 28.00000000000000000, #126 ) ;
#199 = CIRCLE ( 'NONE', #179, 38.10000000000000100 ) ;
#200 = EDGE_LOOP ( 'NONE', ( #187, #21, #53, #188, #128 ) ) ;
#201 = DATE_AND_TIME ( #204, #148 ) ;
#202 = PERSON_AND_ORGANIZATION ( #114, #35 ) ;
#203 = AXIS2_PLACEMENT_3D ( 'NONE', #230, #84, #210 ) ;
#204 = CALENDAR_DATE ( 2018, 13, 12 ) ;
#205 = VECTOR ( 'NONE', #93, 1000.000000000000000 ) ;
#206 = CARTESIAN_POINT ( 'NONE',  ( -5.397641217388990700E-013, 38.55695138588147600, 0.7810358771213055100 ) ) ;
#207 = CARTESIAN_POINT ( 'NONE',  ( -12.78397244625730900, -12.85934973269370300, -0.2604877495932974000 ) ) ;
#208 = CARTESIAN_POINT ( 'NONE',  ( -25.56535385378154100, 12.85934973269375300, -0.003114825532416540000 ) ) ;
#209 = CARTESIAN_POINT ( 'NONE',  ( -38.33896319540557600, 12.85934973269375600, 0.5115266945775354100 ) ) ;
#210 = DIRECTION ( 'NONE',  ( 1.000000000000000000, 0.0000000000000000000, -2.845674993400274200E-018 ) ) ;
#211 = CALENDAR_DATE ( 2018, 13, 12 ) ;
#212 = APPROVAL_DATE_TIME ( #55, #163 ) ;
#213 = AXIS2_PLACEMENT_3D ( 'NONE', #26, #103, #79 ) ;
#214 = CARTESIAN_POINT ( 'NONE',  ( 38.09999999999999400, -1.776356839400250100E-015, 0.7626255633598768600 ) ) ;
#215 = PRODUCT_RELATED_PRODUCT_CATEGORY ( 'detail', '', ( #89 ) ) ;
#216 = LOCAL_TIME ( 17, 12, 28.00000000000000000, #30 ) ;
#217 = DATE_AND_TIME ( #211, #19 ) ;
#218 = APPROVAL_PERSON_ORGANIZATION ( #202, #193, #86 ) ;
#219 = CARTESIAN_POINT ( 'NONE',  ( -25.53739498693799700, 38.55695138588148300, 1.038127332153733700 ) ) ;
#220 = CARTESIAN_POINT ( 'NONE',  ( 12.76999159602448400, 38.55695138588147600, 0.7810358771212994000 ) ) ;
#221 = ORIENTED_EDGE ( 'NONE', *, *, #78, .F. ) ;
#222 = CARTESIAN_POINT ( 'NONE',  ( 12.78397244625641700, 12.85934973269374600, -0.2604877495933689000 ) ) ;
#223 = ADVANCED_BREP_SHAPE_REPRESENTATION ( '110-1755E UVFS pl-cx 76.2 F2000', ( #122, #33 ), #107 ) ;
#224 = CARTESIAN_POINT ( 'NONE',  ( -5.398841206573361900E-013, 38.10000000000040600, 0.7626255633599040600 ) ) ;
#225 = APPROVAL_STATUS ( 'not_yet_approved' ) ;
#226 = COORDINATED_UNIVERSAL_TIME_OFFSET ( 2, 0, .AHEAD. ) ;
#227 = CIRCLE ( 'NONE', #12, 952.1000000000000200 ) ;
#228 = DIRECTION ( 'NONE',  ( 1.000000000000000000, 0.0000000000000000000, 0.0000000000000000000 ) ) ;
#229 = PERSON_AND_ORGANIZATION_ROLE ( 'classification_officer' ) ;
#230 = CARTESIAN_POINT ( 'NONE',  ( -9.325873406851310200E-015, -1.776356839400250100E-015, 0.7626255633598770800 ) ) ;
#231 = CARTESIAN_POINT ( 'NONE',  ( -9.310611848614719700E-015, -1.776356839400250100E-015, 6.000000000000000000 ) ) ;
#232 = VERTEX_POINT ( 'NONE', #52 ) ;
#233 = EDGE_CURVE ( 'NONE', #100, #4, #40, .T. ) ;
#234 = SHAPE_DEFINITION_REPRESENTATION ( #112, #223 ) ;
#235 = ORIENTED_EDGE ( 'NONE', *, *, #161, .F. ) ;
ENDSEC;
END-ISO-10303-21;
