ISO-10303-21;
HEADER;
FILE_DESCRIPTION (( 'STEP AP203' ),
    '1' );
FILE_NAME ('110-1750E UVFS pl-cx 76.2 F1500.STEP',
    '2018-12-13T15:12:38',
    ( '' ),
    ( '' ),
    'SwSTEP 2.0',
    'SolidWorks 2017',
    '' );
FILE_SCHEMA (( 'CONFIG_CONTROL_DESIGN' ));
ENDSEC;

DATA;
#1 = CC_DESIGN_SECURITY_CLASSIFICATION ( #6, ( #132 ) ) ;
#2 = APPLICATION_CONTEXT ( 'configuration controlled 3d designs of mechanical parts and assemblies' ) ;
#3 = EDGE_LOOP ( 'NONE', ( #124, #153 ) ) ;
#4 = PERSON_AND_ORGANIZATION ( #217, #171 ) ;
#5 = EDGE_CURVE ( 'NONE', #117, #41, #50, .T. ) ;
#6 = SECURITY_CLASSIFICATION ( '', '', #215 ) ;
#7 = ORIENTED_EDGE ( 'NONE', *, *, #59, .T. ) ;
#8 = CARTESIAN_POINT ( 'NONE',  ( -25.57544480586732800, 12.86476327425741000, -0.004192555650389933500 ) ) ;
#9 = CARTESIAN_POINT ( 'NONE',  ( -38.34703572361510700, 12.86476327425741100, 0.6822953882348730100 ) ) ;
#10 = CC_DESIGN_PERSON_AND_ORGANIZATION_ASSIGNMENT ( #203, #89, ( #53 ) ) ;
#11 = DIRECTION ( 'NONE',  ( 1.000000000000000000, -3.255406916435470100E-016, -2.813334110390849800E-016 ) ) ;
#12 = DIRECTION ( 'NONE',  ( 1.000000000000000000, 0.0000000000000000000, -0.0000000000000000000 ) ) ;
#13 = CLOSED_SHELL ( 'NONE', ( #107, #104, #32, #205, #170 ) ) ;
#14 = CIRCLE ( 'NONE', #42, 38.10000000000000100 ) ;
#15 = CARTESIAN_POINT ( 'NONE',  ( 25.52571393006885700, 38.55675783039460900, 1.384366946509949500 ) ) ;
#16 = CARTESIAN_POINT ( 'NONE',  ( -4.262867015447331900E-014, -38.55675783039443900, 1.041666884392777900 ) ) ;
#17 = ORIENTED_EDGE ( 'NONE', *, *, #70, .F. ) ;
#18 = AXIS2_PLACEMENT_3D ( 'NONE', #49, #64, #188 ) ;
#19 = LOCAL_TIME ( 17, 12, 38.00000000000000000, #142 ) ;
#20 =( BOUNDED_SURFACE ( )  B_SPLINE_SURFACE ( 3, 3, ( 
 ( #16, #209, #155, #47 ),
 ( #206, #137, #172, #141 ),
 ( #82, #34, #208, #122 ),
 ( #66, #68, #15, #101 ) ),
 .UNSPECIFIED., .F., .F., .F. ) 
 B_SPLINE_SURFACE_WITH_KNOTS ( ( 4, 4 ),
 ( 4, 4 ),
 ( 0.0000000000000000000, 1.000000000000000000 ),
 ( 0.0000000000000000000, 1.000000000000000000 ),
 .UNSPECIFIED. ) 
 GEOMETRIC_REPRESENTATION_ITEM ( )  RATIONAL_B_SPLINE_SURFACE ( (
 ( 1.000000000000000000, 0.9997597114739645900, 0.9997597114739645900, 1.000000000000000000),
 ( 0.9990275247309968700, 0.9987874698796104200, 0.9987874698796104200, 0.9990275247309968700),
 ( 0.9990275247309968700, 0.9987874698796104200, 0.9987874698796104200, 0.9990275247309968700),
 ( 1.000000000000000000, 0.9997597114739645900, 0.9997597114739645900, 1.000000000000000000) ) ) 
 REPRESENTATION_ITEM ( '' )  SURFACE ( )  );
#21 = PERSON_AND_ORGANIZATION_ROLE ( 'creator' ) ;
#22 = EDGE_CURVE ( 'NONE', #84, #211, #182, .T. ) ;
#23 = APPROVAL_ROLE ( '' ) ;
#24 = EDGE_LOOP ( 'NONE', ( #17, #199, #120, #157, #7 ) ) ;
#25 = LOCAL_TIME ( 17, 12, 38.00000000000000000, #51 ) ;
#26 = CARTESIAN_POINT ( 'NONE',  ( -12.76515745568676500, -38.55675783039443200, 1.041666884392785000 ) ) ;
#27 = FACE_OUTER_BOUND ( 'NONE', #221, .T. ) ;
#28 = APPROVAL_PERSON_ORGANIZATION ( #100, #169, #129 ) ;
#29 = DIRECTION ( 'NONE',  ( -0.0000000000000000000, -0.0000000000000000000, -1.000000000000000000 ) ) ;
#30 = CARTESIAN_POINT ( 'NONE',  ( -9.325873406851310200E-015, -1.776356839400250100E-015, 1.017115616985230200 ) ) ;
#31 = CIRCLE ( 'NONE', #81, 38.10000000000000100 ) ;
#32 = ADVANCED_FACE ( 'NONE', ( #143 ), #232, .T. ) ;
#33 = APPROVAL ( #235, 'UNSPECIFIED' ) ;
#34 = CARTESIAN_POINT ( 'NONE',  ( 12.79002737555316900, 12.86476327425739700, -0.3475602885826923300 ) ) ;
#35 = ORIENTED_EDGE ( 'NONE', *, *, #148, .T. ) ;
#36 = LOCAL_TIME ( 17, 12, 38.00000000000000000, #198 ) ;
#37 = DIRECTION ( 'NONE',  ( 1.000000000000000000, 0.0000000000000000000, 0.0000000000000000000 ) ) ;
#38 = DATE_TIME_ROLE ( 'classification_date' ) ;
#39 = DIRECTION ( 'NONE',  ( 1.000000000000000000, 0.0000000000000000000, 0.0000000000000000000 ) ) ;
#40 = MANIFOLD_SOLID_BREP ( 'Imported1', #13 ) ;
#41 = VERTEX_POINT ( 'NONE', #167 ) ;
#42 = AXIS2_PLACEMENT_3D ( 'NONE', #119, #29, #168 ) ;
#43 = ORIENTED_EDGE ( 'NONE', *, *, #176, .F. ) ;
#44 = CARTESIAN_POINT ( 'NONE',  ( -1.942890293094023700E-013, 12.86476327425739900, -0.3475602885826887300 ) ) ;
#45 = PRODUCT_RELATED_PRODUCT_CATEGORY ( 'detail', '', ( #194 ) ) ;
#46 = CC_DESIGN_PERSON_AND_ORGANIZATION_ASSIGNMENT ( #57, #196, ( #6 ) ) ;
#47 = CARTESIAN_POINT ( 'NONE',  ( 38.27247077722671500, -38.55675783039445300, 2.069520030065954900 ) ) ;
#48 = ADVANCED_BREP_SHAPE_REPRESENTATION ( '110-1750E UVFS pl-cx 76.2 F1500', ( #40, #204 ), #67 ) ;
#49 = CARTESIAN_POINT ( 'NONE',  ( -9.325873406851310200E-015, -1.776356839400250100E-015, 1.017115616985230200 ) ) ;
#50 = CIRCLE ( 'NONE', #189, 38.10000000000000100 ) ;
#51 = COORDINATED_UNIVERSAL_TIME_OFFSET ( 2, 0, .AHEAD. ) ;
#52 = CARTESIAN_POINT ( 'NONE',  ( -1.768068328301981700E-014, 38.10000000000042800, 1.017115616985186300 ) ) ;
#53 = PRODUCT_DEFINITION ( 'UNKNOWN', '', #132, #228 ) ;
#54 = COORDINATED_UNIVERSAL_TIME_OFFSET ( 2, 0, .AHEAD. ) ;
#55 = AXIS2_PLACEMENT_3D ( 'NONE', #226, #156, #121 ) ;
#56 = ORIENTED_EDGE ( 'NONE', *, *, #148, .F. ) ;
#57 = PERSON_AND_ORGANIZATION ( #217, #171 ) ;
#58 = EDGE_CURVE ( 'NONE', #65, #75, #14, .T. ) ;
#59 = EDGE_CURVE ( 'NONE', #75, #65, #74, .T. ) ;
#60 = SHAPE_DEFINITION_REPRESENTATION ( #193, #48 ) ;
#61 = VECTOR ( 'NONE', #207, 1000.000000000000000 ) ;
#62 = CALENDAR_DATE ( 2018, 13, 12 ) ;
#63 = CARTESIAN_POINT ( 'NONE',  ( -9.325873406851310200E-015, -1.776356839400250100E-015, 1.017115616985230200 ) ) ;
#64 = DIRECTION ( 'NONE',  ( -0.0000000000000000000, -0.0000000000000000000, -1.000000000000000000 ) ) ;
#65 = VERTEX_POINT ( 'NONE', #225 ) ;
#66 = CARTESIAN_POINT ( 'NONE',  ( -1.752508293119455900E-014, 38.55675783039461600, 1.041666884392777900 ) ) ;
#67 =( GEOMETRIC_REPRESENTATION_CONTEXT ( 3 ) GLOBAL_UNCERTAINTY_ASSIGNED_CONTEXT ( ( #99 ) ) GLOBAL_UNIT_ASSIGNED_CONTEXT ( ( #108, #178, #180 ) ) REPRESENTATION_CONTEXT ( 'NONE', 'WORKASPACE' ) );
#68 = CARTESIAN_POINT ( 'NONE',  ( 12.76515745568664100, 38.55675783039460900, 1.041666884392774100 ) ) ;
#69 = CC_DESIGN_PERSON_AND_ORGANIZATION_ASSIGNMENT ( #4, #111, ( #132 ) ) ;
#70 = EDGE_CURVE ( 'NONE', #84, #65, #138, .T. ) ;
#71 = APPLICATION_PROTOCOL_DEFINITION ( 'international standard', 'config_control_design', 1994, #2 ) ;
#72 = CIRCLE ( 'NONE', #18, 38.10000000000000100 ) ;
#73 = AXIS2_PLACEMENT_3D ( 'NONE', #63, #154, #37 ) ;
#74 = CIRCLE ( 'NONE', #55, 38.10000000000000100 ) ;
#75 = VERTEX_POINT ( 'NONE', #229 ) ;
#76 = CC_DESIGN_PERSON_AND_ORGANIZATION_ASSIGNMENT ( #113, #21, ( #132 ) ) ;
#77 = APPROVAL_DATE_TIME ( #200, #169 ) ;
#78 = CARTESIAN_POINT ( 'NONE',  ( -12.79002737555328100, 12.86476327425740400, -0.3475602885826822300 ) ) ;
#79 = CARTESIAN_POINT ( 'NONE',  ( -9.325873406851310200E-015, -1.776356839400250100E-015, 1.017115616985230200 ) ) ;
#80 = CARTESIAN_POINT ( 'NONE',  ( 0.0000000000000000000, 77.92799999999999700, 6.000000000000000000 ) ) ;
#81 = AXIS2_PLACEMENT_3D ( 'NONE', #174, #106, #187 ) ;
#82 = CARTESIAN_POINT ( 'NONE',  ( -2.627970862798308400E-014, 12.86476327425739700, -0.3475602885826887300 ) ) ;
#83 = PLANE ( 'NONE',  #162 ) ;
#84 = VERTEX_POINT ( 'NONE', #135 ) ;
#85 = CARTESIAN_POINT ( 'NONE',  ( 38.09999999999999400, -1.776356839400250100E-015, 1.017115616985230200 ) ) ;
#86 = APPLICATION_PROTOCOL_DEFINITION ( 'international standard', 'config_control_design', 1994, #159 ) ;
#87 = CC_DESIGN_APPROVAL ( #33, ( #6 ) ) ;
#88 = APPROVAL_STATUS ( 'not_yet_approved' ) ;
#89 = PERSON_AND_ORGANIZATION_ROLE ( 'creator' ) ;
#90 = FACE_OUTER_BOUND ( 'NONE', #24, .T. ) ;
#91 = DATE_AND_TIME ( #62, #139 ) ;
#92 = CC_DESIGN_APPROVAL ( #169, ( #53 ) ) ;
#93 = CC_DESIGN_DATE_AND_TIME_ASSIGNMENT ( #183, #38, ( #6 ) ) ;
#94 = FACE_OUTER_BOUND ( 'NONE', #161, .T. ) ;
#95 = DIRECTION ( 'NONE',  ( -0.0000000000000000000, -0.0000000000000000000, -1.000000000000000000 ) ) ;
#96 = CARTESIAN_POINT ( 'NONE',  ( -2.151057110211240800E-013, -38.55675783039443900, 1.041666884392778300 ) ) ;
#97 = CARTESIAN_POINT ( 'NONE',  ( -2.081668171172168300E-013, -12.86476327425721600, -0.3475602885826985000 ) ) ;
#98 = CARTESIAN_POINT ( 'NONE',  ( -25.57544480586734200, -12.86476327425720900, -0.004192555650400016500 ) ) ;
#99 = UNCERTAINTY_MEASURE_WITH_UNIT (LENGTH_MEASURE( 1.000000000000000100E-005 ), #108, 'distance_accuracy_value', 'NONE');
#100 = PERSON_AND_ORGANIZATION ( #217, #171 ) ;
#101 = CARTESIAN_POINT ( 'NONE',  ( 38.27247077722674400, 38.55675783039460200, 2.069520030065954900 ) ) ;
#102 = CARTESIAN_POINT ( 'NONE',  ( 1.705302565824239900E-013, 2.273736754432320100E-013, 714.1000000000000200 ) ) ;
#103 = ORIENTED_EDGE ( 'NONE', *, *, #176, .T. ) ;
#104 = ADVANCED_FACE ( 'NONE', ( #27 ), #201, .T. ) ;
#105 = COORDINATED_UNIVERSAL_TIME_OFFSET ( 2, 0, .AHEAD. ) ;
#106 = DIRECTION ( 'NONE',  ( -0.0000000000000000000, -0.0000000000000000000, -1.000000000000000000 ) ) ;
#107 = ADVANCED_FACE ( 'NONE', ( #94 ), #20, .T. ) ;
#108 =( LENGTH_UNIT ( ) NAMED_UNIT ( * ) SI_UNIT ( .MILLI., .METRE. ) );
#109 = APPROVAL_DATE_TIME ( #91, #33 ) ;
#110 = PERSON_AND_ORGANIZATION_ROLE ( 'design_owner' ) ;
#111 = PERSON_AND_ORGANIZATION_ROLE ( 'design_supplier' ) ;
#112 = VECTOR ( 'NONE', #151, 1000.000000000000000 ) ;
#113 = PERSON_AND_ORGANIZATION ( #217, #171 ) ;
#114 = EDGE_LOOP ( 'NONE', ( #43, #223, #181 ) ) ;
#115 = CARTESIAN_POINT ( 'NONE',  ( -38.34703572361512200, -12.86476327425720400, 0.6822953882348632400 ) ) ;
#116 = DIRECTION ( 'NONE',  ( 1.000000000000000000, 0.0000000000000000000, 0.0000000000000000000 ) ) ;
#117 = VERTEX_POINT ( 'NONE', #85 ) ;
#118 = CARTESIAN_POINT ( 'NONE',  ( -38.10000000000000900, 2.889547465351166000E-015, 1.017115616985230200 ) ) ;
#119 = CARTESIAN_POINT ( 'NONE',  ( -9.325873406851310200E-015, -1.776356839400250100E-015, 6.000000000000000000 ) ) ;
#120 = ORIENTED_EDGE ( 'NONE', *, *, #5, .F. ) ;
#121 = DIRECTION ( 'NONE',  ( 1.000000000000000000, 0.0000000000000000000, 0.0000000000000000000 ) ) ;
#122 = CARTESIAN_POINT ( 'NONE',  ( 38.34703572361522100, 12.86476327425738700, 0.6822953882348314900 ) ) ;
#123 = DIRECTION ( 'NONE',  ( 0.0000000000000000000, 0.0000000000000000000, 1.000000000000000000 ) ) ;
#124 = ORIENTED_EDGE ( 'NONE', *, *, #59, .F. ) ;
#125 = LOCAL_TIME ( 17, 12, 38.00000000000000000, #54 ) ;
#126 = CC_DESIGN_APPROVAL ( #164, ( #132 ) ) ;
#127 = APPROVAL_STATUS ( 'not_yet_approved' ) ;
#128 = ORIENTED_EDGE ( 'NONE', *, *, #22, .F. ) ;
#129 = APPROVAL_ROLE ( '' ) ;
#130 = CIRCLE ( 'NONE', #195, 714.1000000000000200 ) ;
#131 = CALENDAR_DATE ( 2018, 13, 12 ) ;
#132 = PRODUCT_DEFINITION_FORMATION_WITH_SPECIFIED_SOURCE ( 'ANY', '', #194, .NOT_KNOWN. ) ;
#133 = CARTESIAN_POINT ( 'NONE',  ( -12.79002737555329700, -12.86476327425721400, -0.3475602885826918300 ) ) ;
#134 = CARTESIAN_POINT ( 'NONE',  ( -25.52571393006882900, 38.55675783039462300, 1.384366946509992800 ) ) ;
#135 = CARTESIAN_POINT ( 'NONE',  ( -38.10000000000000900, 2.889547465351166000E-015, 1.017115616985230200 ) ) ;
#136 = CC_DESIGN_PERSON_AND_ORGANIZATION_ASSIGNMENT ( #222, #110, ( #194 ) ) ;
#137 = CARTESIAN_POINT ( 'NONE',  ( 12.79002737555316000, -12.86476327425722300, -0.3475602885827023300 ) ) ;
#138 = LINE ( 'NONE', #118, #112 ) ;
#139 = LOCAL_TIME ( 17, 12, 38.00000000000000000, #105 ) ;
#140 = AXIS2_PLACEMENT_3D ( 'NONE', #234, #123, #190 ) ;
#141 = CARTESIAN_POINT ( 'NONE',  ( 38.34703572361521400, -12.86476327425723000, 0.6822953882348213900 ) ) ;
#142 = COORDINATED_UNIVERSAL_TIME_OFFSET ( 2, 0, .AHEAD. ) ;
#143 = FACE_OUTER_BOUND ( 'NONE', #114, .T. ) ;
#144 = DATE_AND_TIME ( #233, #125 ) ;
#145 = CALENDAR_DATE ( 2018, 13, 12 ) ;
#146 = CARTESIAN_POINT ( 'NONE',  ( -38.27247077722661600, 38.55675783039463100, 2.069520030065996600 ) ) ;
#147 = CARTESIAN_POINT ( 'NONE',  ( -1.873501354054951700E-013, 38.55675783039461600, 1.041666884392777900 ) ) ;
#148 = EDGE_CURVE ( 'NONE', #211, #117, #31, .T. ) ;
#149 = CALENDAR_DATE ( 2018, 13, 12 ) ;
#150 = CARTESIAN_POINT ( 'NONE',  ( -38.27247077722663700, -38.55675783039442500, 2.069520030065996600 ) ) ;
#151 = DIRECTION ( 'NONE',  ( 0.0000000000000000000, 0.0000000000000000000, 1.000000000000000000 ) ) ;
#152 = ORIENTED_EDGE ( 'NONE', *, *, #58, .T. ) ;
#153 = ORIENTED_EDGE ( 'NONE', *, *, #58, .F. ) ;
#154 = DIRECTION ( 'NONE',  ( 0.0000000000000000000, 0.0000000000000000000, 1.000000000000000000 ) ) ;
#155 = CARTESIAN_POINT ( 'NONE',  ( 25.52571393006882900, -38.55675783039444600, 1.384366946509949700 ) ) ;
#156 = DIRECTION ( 'NONE',  ( -0.0000000000000000000, -0.0000000000000000000, -1.000000000000000000 ) ) ;
#157 = ORIENTED_EDGE ( 'NONE', *, *, #227, .T. ) ;
#158 = DATE_AND_TIME ( #149, #25 ) ;
#159 = APPLICATION_CONTEXT ( 'configuration controlled 3d designs of mechanical parts and assemblies' ) ;
#160 = APPROVAL_ROLE ( '' ) ;
#161 = EDGE_LOOP ( 'NONE', ( #197, #103, #35 ) ) ;
#162 = AXIS2_PLACEMENT_3D ( 'NONE', #80, #231, #12 ) ;
#163 = APPROVAL_PERSON_ORGANIZATION ( #212, #164, #23 ) ;
#164 = APPROVAL ( #88, 'UNSPECIFIED' ) ;
#165 = LINE ( 'NONE', #210, #61 ) ;
#166 = APPROVAL_PERSON_ORGANIZATION ( #219, #33, #160 ) ;
#167 = CARTESIAN_POINT ( 'NONE',  ( -4.248688398625830500E-014, -38.10000000000020000, 1.017115616985186300 ) ) ;
#168 = DIRECTION ( 'NONE',  ( 1.000000000000000000, 0.0000000000000000000, 0.0000000000000000000 ) ) ;
#169 = APPROVAL ( #127, 'UNSPECIFIED' ) ;
#170 = ADVANCED_FACE ( 'NONE', ( #230 ), #83, .T. ) ;
#171 = ORGANIZATION ( 'UNSPECIFIED', 'UNSPECIFIED', '' ) ;
#172 = CARTESIAN_POINT ( 'NONE',  ( 25.57544480586732000, -12.86476327425722700, -0.004192555650443167800 ) ) ;
#173 = CARTESIAN_POINT ( 'NONE',  ( 0.0000000000000000000, 0.0000000000000000000, 0.0000000000000000000 ) ) ;
#174 = CARTESIAN_POINT ( 'NONE',  ( -9.325873406851310200E-015, -1.776356839400250100E-015, 1.017115616985230200 ) ) ;
#175 = APPROVAL_DATE_TIME ( #158, #164 ) ;
#176 = EDGE_CURVE ( 'NONE', #41, #211, #130, .T. ) ;
#177 = DIRECTION ( 'NONE',  ( 0.0000000000000000000, 0.0000000000000000000, 1.000000000000000000 ) ) ;
#178 =( NAMED_UNIT ( * ) PLANE_ANGLE_UNIT ( ) SI_UNIT ( $, .RADIAN. ) );
#179 = AXIS2_PLACEMENT_3D ( 'NONE', #79, #95, #186 ) ;
#180 =( NAMED_UNIT ( * ) SI_UNIT ( $, .STERADIAN. ) SOLID_ANGLE_UNIT ( ) );
#181 = ORIENTED_EDGE ( 'NONE', *, *, #22, .T. ) ;
#182 = CIRCLE ( 'NONE', #179, 38.10000000000000100 ) ;
#183 = DATE_AND_TIME ( #131, #36 ) ;
#184 = CARTESIAN_POINT ( 'NONE',  ( -25.52571393006885700, -38.55675783039443200, 1.384366946509992800 ) ) ;
#185 = DIRECTION ( 'NONE',  ( -0.0000000000000000000, -0.0000000000000000000, -1.000000000000000000 ) ) ;
#186 = DIRECTION ( 'NONE',  ( 1.000000000000000000, 0.0000000000000000000, 0.0000000000000000000 ) ) ;
#187 = DIRECTION ( 'NONE',  ( 1.000000000000000000, 8.881784197001252300E-016, 0.0000000000000000000 ) ) ;
#188 = DIRECTION ( 'NONE',  ( 1.000000000000000000, 0.0000000000000000000, 0.0000000000000000000 ) ) ;
#189 = AXIS2_PLACEMENT_3D ( 'NONE', #30, #185, #116 ) ;
#190 = DIRECTION ( 'NONE',  ( 1.000000000000000000, 0.0000000000000000000, 0.0000000000000000000 ) ) ;
#191 = ORIENTED_EDGE ( 'NONE', *, *, #227, .F. ) ;
#192 = DIRECTION ( 'NONE',  ( -3.255406916435471100E-016, -1.000000000000000000, -3.109432921510030800E-016 ) ) ;
#193 = PRODUCT_DEFINITION_SHAPE ( 'NONE', 'NONE',  #53 ) ;
#194 = PRODUCT ( '110-1750E UVFS pl-cx 76.2 F1500', '110-1750E UVFS pl-cx 76.2 F1500', '', ( #213 ) ) ;
#195 = AXIS2_PLACEMENT_3D ( 'NONE', #102, #11, #192 ) ;
#196 = PERSON_AND_ORGANIZATION_ROLE ( 'classification_officer' ) ;
#197 = ORIENTED_EDGE ( 'NONE', *, *, #5, .T. ) ;
#198 = COORDINATED_UNIVERSAL_TIME_OFFSET ( 2, 0, .AHEAD. ) ;
#199 = ORIENTED_EDGE ( 'NONE', *, *, #214, .F. ) ;
#200 = DATE_AND_TIME ( #145, #19 ) ;
#201 = CYLINDRICAL_SURFACE ( 'NONE', #73, 38.10000000000000100 ) ;
#202 = ORIENTED_EDGE ( 'NONE', *, *, #70, .T. ) ;
#203 = PERSON_AND_ORGANIZATION ( #217, #171 ) ;
#204 = AXIS2_PLACEMENT_3D ( 'NONE', #173, #177, #39 ) ;
#205 = ADVANCED_FACE ( 'NONE', ( #90 ), #218, .T. ) ;
#206 = CARTESIAN_POINT ( 'NONE',  ( -3.465571649624753300E-014, -12.86476327425721800, -0.3475602885826987200 ) ) ;
#207 = DIRECTION ( 'NONE',  ( 0.0000000000000000000, 0.0000000000000000000, 1.000000000000000000 ) ) ;
#208 = CARTESIAN_POINT ( 'NONE',  ( 25.57544480586732800, 12.86476327425739400, -0.004192555650433193100 ) ) ;
#209 = CARTESIAN_POINT ( 'NONE',  ( 12.76515745568661600, -38.55675783039444600, 1.041666884392774100 ) ) ;
#210 = CARTESIAN_POINT ( 'NONE',  ( 38.09999999999999400, -1.776356839400250100E-015, 1.017115616985230200 ) ) ;
#211 = VERTEX_POINT ( 'NONE', #52 ) ;
#212 = PERSON_AND_ORGANIZATION ( #217, #171 ) ;
#213 = MECHANICAL_CONTEXT ( 'NONE', #159, 'mechanical' ) ;
#214 = EDGE_CURVE ( 'NONE', #41, #84, #72, .T. ) ;
#215 = SECURITY_CLASSIFICATION_LEVEL ( 'unclassified' ) ;
#216 = DATE_TIME_ROLE ( 'creation_date' ) ;
#217 = PERSON ( 'UNSPECIFIED', 'UNSPECIFIED', 'UNSPECIFIED', ('UNSPECIFIED'), ('UNSPECIFIED'), ('UNSPECIFIED') ) ;
#218 = CYLINDRICAL_SURFACE ( 'NONE', #140, 38.10000000000000100 ) ;
#219 = PERSON_AND_ORGANIZATION ( #217, #171 ) ;
#220 = CC_DESIGN_DATE_AND_TIME_ASSIGNMENT ( #144, #216, ( #53 ) ) ;
#221 = EDGE_LOOP ( 'NONE', ( #128, #202, #152, #191, #56 ) ) ;
#222 = PERSON_AND_ORGANIZATION ( #217, #171 ) ;
#223 = ORIENTED_EDGE ( 'NONE', *, *, #214, .T. ) ;
#224 = CARTESIAN_POINT ( 'NONE',  ( -12.76515745568673700, 38.55675783039462300, 1.041666884392784500 ) ) ;
#225 = CARTESIAN_POINT ( 'NONE',  ( -38.10000000000000900, 2.889547465351166000E-015, 6.000000000000000000 ) ) ;
#226 = CARTESIAN_POINT ( 'NONE',  ( -9.325873406851310200E-015, -1.776356839400250100E-015, 6.000000000000000000 ) ) ;
#227 = EDGE_CURVE ( 'NONE', #117, #75, #165, .T. ) ;
#228 = DESIGN_CONTEXT ( 'detailed design', #2, 'design' ) ;
#229 = CARTESIAN_POINT ( 'NONE',  ( 38.09999999999999400, -1.776356839400250100E-015, 6.000000000000000000 ) ) ;
#230 = FACE_OUTER_BOUND ( 'NONE', #3, .T. ) ;
#231 = DIRECTION ( 'NONE',  ( 0.0000000000000000000, 0.0000000000000000000, 1.000000000000000000 ) ) ;
#232 =( BOUNDED_SURFACE ( )  B_SPLINE_SURFACE ( 3, 3, ( 
 ( #150, #184, #26, #96 ),
 ( #115, #98, #133, #97 ),
 ( #9, #8, #78, #44 ),
 ( #146, #134, #224, #147 ) ),
 .UNSPECIFIED., .F., .F., .F. ) 
 B_SPLINE_SURFACE_WITH_KNOTS ( ( 4, 4 ),
 ( 4, 4 ),
 ( 0.0000000000000000000, 1.000000000000000000 ),
 ( 0.0000000000000000000, 1.000000000000000000 ),
 .UNSPECIFIED. ) 
 GEOMETRIC_REPRESENTATION_ITEM ( )  RATIONAL_B_SPLINE_SURFACE ( (
 ( 1.000000000000000000, 0.9997597114739645900, 0.9997597114739645900, 1.000000000000000000),
 ( 0.9990275247309968700, 0.9987874698796104200, 0.9987874698796104200, 0.9990275247309968700),
 ( 0.9990275247309968700, 0.9987874698796104200, 0.9987874698796104200, 0.9990275247309968700),
 ( 1.000000000000000000, 0.9997597114739645900, 0.9997597114739645900, 1.000000000000000000) ) ) 
 REPRESENTATION_ITEM ( '' )  SURFACE ( )  );
#233 = CALENDAR_DATE ( 2018, 13, 12 ) ;
#234 = CARTESIAN_POINT ( 'NONE',  ( -9.325873406851310200E-015, -1.776356839400250100E-015, 1.017115616985230200 ) ) ;
#235 = APPROVAL_STATUS ( 'not_yet_approved' ) ;
ENDSEC;
END-ISO-10303-21;
