ISO-10303-21;
HEADER;
FILE_DESCRIPTION (( 'STEP AP203' ),
    '1' );
FILE_NAME ('110-1745E UVFS pl-cx 76.2 F1000.STEP',
    '2018-12-13T15:12:46',
    ( '' ),
    ( '' ),
    'SwSTEP 2.0',
    'SolidWorks 2017',
    '' );
FILE_SCHEMA (( 'CONFIG_CONTROL_DESIGN' ));
ENDSEC;

DATA;
#1 = EDGE_CURVE ( 'NONE', #223, #150, #93, .T. ) ;
#2 = ORIENTED_EDGE ( 'NONE', *, *, #28, .T. ) ;
#3 = DIRECTION ( 'NONE',  ( 1.000000000000000000, 0.0000000000000000000, 0.0000000000000000000 ) ) ;
#4 = CARTESIAN_POINT ( 'NONE',  ( -2.220446049250312800E-013, 12.88027188579874900, -0.5224021293547214100 ) ) ;
#5 = COORDINATED_UNIVERSAL_TIME_OFFSET ( 2, 0, .AHEAD. ) ;
#6 = DIRECTION ( 'NONE',  ( -0.0000000000000000000, -0.0000000000000000000, -1.000000000000000000 ) ) ;
#7 = CARTESIAN_POINT ( 'NONE',  ( -38.20221573240657200, -38.55620384060905100, 3.103995938088188700 ) ) ;
#8 = CARTESIAN_POINT ( 'NONE',  ( 12.80737598766703700, -12.88027188579870600, -0.5224021293546762300 ) ) ;
#9 = DATE_AND_TIME ( #182, #224 ) ;
#10 = CYLINDRICAL_SURFACE ( 'NONE', #151, 38.10000000000000100 ) ;
#11 = CARTESIAN_POINT ( 'NONE',  ( -9.070711010108241700E-014, 38.55620384060910800, 1.563774675313767100 ) ) ;
#12 = DIRECTION ( 'NONE',  ( 1.000000000000000000, 0.0000000000000000000, 0.0000000000000000000 ) ) ;
#13 = DATE_TIME_ROLE ( 'classification_date' ) ;
#14 = ADVANCED_BREP_SHAPE_REPRESENTATION ( '110-1745E UVFS pl-cx 76.2 F1000', ( #138, #91 ), #219 ) ;
#15 = APPROVAL_ROLE ( '' ) ;
#16 = APPLICATION_CONTEXT ( 'configuration controlled 3d designs of mechanical parts and assemblies' ) ;
#17 = EDGE_LOOP ( 'NONE', ( #197, #130 ) ) ;
#18 = CC_DESIGN_PERSON_AND_ORGANIZATION_ASSIGNMENT ( #226, #198, ( #23 ) ) ;
#19 = DIRECTION ( 'NONE',  ( 1.000000000000000000, -2.441384245984629900E-016, -2.109852854684000100E-016 ) ) ;
#20 = ADVANCED_FACE ( 'NONE', ( #104 ), #180, .T. ) ;
#21 = ADVANCED_FACE ( 'NONE', ( #185 ), #10, .T. ) ;
#22 = PRODUCT_DEFINITION_SHAPE ( 'NONE', 'NONE',  #108 ) ;
#23 = PRODUCT ( '110-1745E UVFS pl-cx 76.2 F1000', '110-1745E UVFS pl-cx 76.2 F1000', '', ( #199 ) ) ;
#24 = COORDINATED_UNIVERSAL_TIME_OFFSET ( 2, 0, .AHEAD. ) ;
#25 = VERTEX_POINT ( 'NONE', #44 ) ;
#26 = CIRCLE ( 'NONE', #184, 38.10000000000000100 ) ;
#27 = ORIENTED_EDGE ( 'NONE', *, *, #153, .F. ) ;
#28 = EDGE_CURVE ( 'NONE', #192, #80, #209, .T. ) ;
#29 = CARTESIAN_POINT ( 'NONE',  ( -2.081668171172168500E-013, 38.55620384060910800, 1.563774675313716300 ) ) ;
#30 = DIRECTION ( 'NONE',  ( 0.0000000000000000000, 0.0000000000000000000, 1.000000000000000000 ) ) ;
#31 = APPROVAL_PERSON_ORGANIZATION ( #106, #88, #234 ) ;
#32 = APPROVAL ( #220, 'UNSPECIFIED' ) ;
#33 = CARTESIAN_POINT ( 'NONE',  ( 12.80737598766704400, 12.88027188579874700, -0.5224021293546731200 ) ) ;
#34 = APPROVAL_PERSON_ORGANIZATION ( #78, #32, #124 ) ;
#35 = CARTESIAN_POINT ( 'NONE',  ( 25.60435540204533200, -12.88027188579870800, -0.006458762839634977700 ) ) ;
#36 = DIRECTION ( 'NONE',  ( -0.0000000000000000000, -0.0000000000000000000, -1.000000000000000000 ) ) ;
#37 = CALENDAR_DATE ( 2018, 13, 12 ) ;
#38 = DESIGN_CONTEXT ( 'detailed design', #16, 'design' ) ;
#39 = CALENDAR_DATE ( 2018, 13, 12 ) ;
#40 = ORGANIZATION ( 'UNSPECIFIED', 'UNSPECIFIED', '' ) ;
#41 = SECURITY_CLASSIFICATION ( '', '', #147 ) ;
#42 = EDGE_CURVE ( 'NONE', #80, #25, #57, .T. ) ;
#43 = CC_DESIGN_APPROVAL ( #32, ( #108 ) ) ;
#44 = CARTESIAN_POINT ( 'NONE',  ( -38.10000000000000900, 2.889547465351166000E-015, 6.000000000000000000 ) ) ;
#45 = ORIENTED_EDGE ( 'NONE', *, *, #153, .T. ) ;
#46 = DIRECTION ( 'NONE',  ( 0.0000000000000000000, 0.0000000000000000000, 1.000000000000000000 ) ) ;
#47 = CIRCLE ( 'NONE', #131, 476.1000000000000200 ) ;
#48 = CLOSED_SHELL ( 'NONE', ( #89, #163, #20, #21, #51 ) ) ;
#49 = EDGE_LOOP ( 'NONE', ( #146, #169, #45 ) ) ;
#50 =( LENGTH_UNIT ( ) NAMED_UNIT ( * ) SI_UNIT ( .MILLI., .METRE. ) );
#51 = ADVANCED_FACE ( 'NONE', ( #110 ), #170, .T. ) ;
#52 = LOCAL_TIME ( 17, 12, 46.00000000000000000, #129 ) ;
#53 = CC_DESIGN_PERSON_AND_ORGANIZATION_ASSIGNMENT ( #164, #178, ( #108 ) ) ;
#54 = ORIENTED_EDGE ( 'NONE', *, *, #60, .F. ) ;
#55 = APPROVAL_DATE_TIME ( #217, #32 ) ;
#56 = ORIENTED_EDGE ( 'NONE', *, *, #75, .T. ) ;
#57 = CIRCLE ( 'NONE', #189, 38.10000000000000100 ) ;
#58 = PRODUCT_RELATED_PRODUCT_CATEGORY ( 'detail', '', ( #23 ) ) ;
#59 = CARTESIAN_POINT ( 'NONE',  ( -38.20221573240655700, 38.55620384060911500, 3.103995938088188700 ) ) ;
#60 = EDGE_CURVE ( 'NONE', #150, #25, #133, .T. ) ;
#61 = CARTESIAN_POINT ( 'NONE',  ( -12.75131808817542700, 38.55620384060910800, 1.563774675313722100 ) ) ;
#62 = CC_DESIGN_PERSON_AND_ORGANIZATION_ASSIGNMENT ( #208, #148, ( #41 ) ) ;
#63 = CARTESIAN_POINT ( 'NONE',  ( -1.094296089003549200E-013, -38.10000000000010800, 1.526928703281792200 ) ) ;
#64 = VERTEX_POINT ( 'NONE', #67 ) ;
#65 = CARTESIAN_POINT ( 'NONE',  ( -9.325873406851310200E-015, -1.776356839400250100E-015, 1.526928703281780000 ) ) ;
#66 = CC_DESIGN_DATE_AND_TIME_ASSIGNMENT ( #115, #102, ( #108 ) ) ;
#67 = CARTESIAN_POINT ( 'NONE',  ( -9.082626094595197200E-014, 38.10000000000016500, 1.526928703281792200 ) ) ;
#68 = PRODUCT_DEFINITION_FORMATION_WITH_SPECIFIED_SOURCE ( 'ANY', '', #23, .NOT_KNOWN. ) ;
#69 = CARTESIAN_POINT ( 'NONE',  ( -9.325873406851310200E-015, -1.776356839400250100E-015, 1.526928703281780000 ) ) ;
#70 = VECTOR ( 'NONE', #100, 1000.000000000000000 ) ;
#71 = DIRECTION ( 'NONE',  ( 1.000000000000000000, 1.776356839400250500E-015, 0.0000000000000000000 ) ) ;
#72 = DATE_AND_TIME ( #37, #52 ) ;
#73 = EDGE_LOOP ( 'NONE', ( #27, #120, #235, #142, #92 ) ) ;
#74 = APPLICATION_CONTEXT ( 'configuration controlled 3d designs of mechanical parts and assemblies' ) ;
#75 = EDGE_CURVE ( 'NONE', #192, #223, #155, .T. ) ;
#76 = PERSON_AND_ORGANIZATION ( #145, #40 ) ;
#77 = LOCAL_TIME ( 17, 12, 46.00000000000000000, #5 ) ;
#78 = PERSON_AND_ORGANIZATION ( #145, #40 ) ;
#79 = CARTESIAN_POINT ( 'NONE',  ( -38.37016197569570200, -12.88027188579869400, 1.024590321162598400 ) ) ;
#80 = VERTEX_POINT ( 'NONE', #193 ) ;
#81 = DIRECTION ( 'NONE',  ( 1.000000000000000000, 0.0000000000000000000, 0.0000000000000000000 ) ) ;
#82 = CARTESIAN_POINT ( 'NONE',  ( 38.20221573240643000, 38.55620384060910100, 3.103995938088202500 ) ) ;
#83 = COORDINATED_UNIVERSAL_TIME_OFFSET ( 2, 0, .AHEAD. ) ;
#84 = SHAPE_DEFINITION_REPRESENTATION ( #22, #14 ) ;
#85 = CARTESIAN_POINT ( 'NONE',  ( 38.37016197569556700, 12.88027188579874100, 1.024590321162615300 ) ) ;
#86 = APPROVAL_STATUS ( 'not_yet_approved' ) ;
#87 = APPLICATION_PROTOCOL_DEFINITION ( 'international standard', 'config_control_design', 1994, #74 ) ;
#88 = APPROVAL ( #86, 'UNSPECIFIED' ) ;
#89 = ADVANCED_FACE ( 'NONE', ( #157 ), #231, .T. ) ;
#90 = ORIENTED_EDGE ( 'NONE', *, *, #75, .F. ) ;
#91 = AXIS2_PLACEMENT_3D ( 'NONE', #123, #214, #218 ) ;
#92 = ORIENTED_EDGE ( 'NONE', *, *, #165, .F. ) ;
#93 = CIRCLE ( 'NONE', #213, 38.10000000000000100 ) ;
#94 = CARTESIAN_POINT ( 'NONE',  ( -38.37016197569570200, 12.88027188579875700, 1.024590321162602000 ) ) ;
#95 = AXIS2_PLACEMENT_3D ( 'NONE', #174, #46, #173 ) ;
#96 = DIRECTION ( 'NONE',  ( 0.0000000000000000000, 0.0000000000000000000, 1.000000000000000000 ) ) ;
#97 = CARTESIAN_POINT ( 'NONE',  ( -9.325873406851310200E-015, -1.776356839400250100E-015, 1.526928703281780000 ) ) ;
#98 = CARTESIAN_POINT ( 'NONE',  ( 38.20221573240641500, -38.55620384060906500, 3.103995938088202500 ) ) ;
#99 = CC_DESIGN_APPROVAL ( #88, ( #68 ) ) ;
#100 = DIRECTION ( 'NONE',  ( 0.0000000000000000000, 0.0000000000000000000, 1.000000000000000000 ) ) ;
#101 =( NAMED_UNIT ( * ) PLANE_ANGLE_UNIT ( ) SI_UNIT ( $, .RADIAN. ) );
#102 = DATE_TIME_ROLE ( 'creation_date' ) ;
#103 = AXIS2_PLACEMENT_3D ( 'NONE', #65, #232, #118 ) ;
#104 = FACE_OUTER_BOUND ( 'NONE', #49, .T. ) ;
#105 = EDGE_CURVE ( 'NONE', #25, #80, #26, .T. ) ;
#106 = PERSON_AND_ORGANIZATION ( #145, #40 ) ;
#107 = CYLINDRICAL_SURFACE ( 'NONE', #156, 38.10000000000000100 ) ;
#108 = PRODUCT_DEFINITION ( 'UNKNOWN', '', #68, #38 ) ;
#109 = DIRECTION ( 'NONE',  ( 1.000000000000000000, 8.881784197001252300E-016, 0.0000000000000000000 ) ) ;
#110 = FACE_OUTER_BOUND ( 'NONE', #17, .T. ) ;
#111 = CARTESIAN_POINT ( 'NONE',  ( -9.325873406851310200E-015, -1.776356839400250100E-015, 1.526928703281780000 ) ) ;
#112 = CARTESIAN_POINT ( 'NONE',  ( -9.325873406851310200E-015, -1.776356839400250100E-015, 1.526928703281780000 ) ) ;
#113 = LOCAL_TIME ( 17, 12, 46.00000000000000000, #83 ) ;
#114 = AXIS2_PLACEMENT_3D ( 'NONE', #128, #36, #71 ) ;
#115 = DATE_AND_TIME ( #167, #77 ) ;
#116 = CARTESIAN_POINT ( 'NONE',  ( -1.037048828604952100E-013, -12.88027188579870100, -0.5224021293546736700 ) ) ;
#117 = CARTESIAN_POINT ( 'NONE',  ( -9.741574428729765000E-014, 12.88027188579875000, -0.5224021293546706700 ) ) ;
#118 = DIRECTION ( 'NONE',  ( 1.000000000000000000, -8.881784197001252300E-016, 0.0000000000000000000 ) ) ;
#119 = CARTESIAN_POINT ( 'NONE',  ( 12.75131808817518600, 38.55620384060910800, 1.563774675313764200 ) ) ;
#120 = ORIENTED_EDGE ( 'NONE', *, *, #60, .T. ) ;
#121 = CARTESIAN_POINT ( 'NONE',  ( -38.10000000000000900, 2.889547465351166000E-015, 1.526928703281780000 ) ) ;
#122 = PERSON_AND_ORGANIZATION_ROLE ( 'design_supplier' ) ;
#123 = CARTESIAN_POINT ( 'NONE',  ( 0.0000000000000000000, 0.0000000000000000000, 0.0000000000000000000 ) ) ;
#124 = APPROVAL_ROLE ( '' ) ;
#125 = CALENDAR_DATE ( 2018, 13, 12 ) ;
#126 = CC_DESIGN_DATE_AND_TIME_ASSIGNMENT ( #72, #13, ( #41 ) ) ;
#127 = DIRECTION ( 'NONE',  ( -2.441384245984629400E-016, -1.000000000000000000, 0.0000000000000000000 ) ) ;
#128 = CARTESIAN_POINT ( 'NONE',  ( -9.325873406851310200E-015, -1.776356839400250100E-015, 1.526928703281780000 ) ) ;
#129 = COORDINATED_UNIVERSAL_TIME_OFFSET ( 2, 0, .AHEAD. ) ;
#130 = ORIENTED_EDGE ( 'NONE', *, *, #105, .F. ) ;
#131 = AXIS2_PLACEMENT_3D ( 'NONE', #162, #19, #127 ) ;
#132 = DATE_AND_TIME ( #39, #113 ) ;
#133 = LINE ( 'NONE', #194, #70 ) ;
#134 = CARTESIAN_POINT ( 'NONE',  ( -2.220446049250312800E-013, -12.88027188579870200, -0.5224021293547239700 ) ) ;
#135 = CARTESIAN_POINT ( 'NONE',  ( -25.49228510887509800, 38.55620384060911500, 2.077459757117588300 ) ) ;
#136 = CARTESIAN_POINT ( 'NONE',  ( -25.49228510887511200, -38.55620384060905800, 2.077459757117588300 ) ) ;
#137 = CARTESIAN_POINT ( 'NONE',  ( 25.49228510887491000, 38.55620384060910100, 2.077459757117601200 ) ) ;
#138 = MANIFOLD_SOLID_BREP ( 'Imported1', #48 ) ;
#139 = CARTESIAN_POINT ( 'NONE',  ( -9.325873406851310200E-015, -1.776356839400250100E-015, 6.000000000000000000 ) ) ;
#140 = APPROVAL_DATE_TIME ( #132, #88 ) ;
#141 = APPROVAL ( #160, 'UNSPECIFIED' ) ;
#142 = ORIENTED_EDGE ( 'NONE', *, *, #28, .F. ) ;
#143 = CARTESIAN_POINT ( 'NONE',  ( 38.09999999999999400, -1.776356839400250100E-015, 1.526928703281780000 ) ) ;
#144 = DIRECTION ( 'NONE',  ( 1.000000000000000000, 0.0000000000000000000, 0.0000000000000000000 ) ) ;
#145 = PERSON ( 'UNSPECIFIED', 'UNSPECIFIED', 'UNSPECIFIED', ('UNSPECIFIED'), ('UNSPECIFIED'), ('UNSPECIFIED') ) ;
#146 = ORIENTED_EDGE ( 'NONE', *, *, #201, .F. ) ;
#147 = SECURITY_CLASSIFICATION_LEVEL ( 'unclassified' ) ;
#148 = PERSON_AND_ORGANIZATION_ROLE ( 'classification_officer' ) ;
#149 = ORIENTED_EDGE ( 'NONE', *, *, #201, .T. ) ;
#150 = VERTEX_POINT ( 'NONE', #121 ) ;
#151 = AXIS2_PLACEMENT_3D ( 'NONE', #111, #188, #3 ) ;
#152 = CARTESIAN_POINT ( 'NONE',  ( -25.60435540204554200, -12.88027188579869900, -0.006458762839648205000 ) ) ;
#153 = EDGE_CURVE ( 'NONE', #150, #64, #202, .T. ) ;
#154 = CARTESIAN_POINT ( 'NONE',  ( 38.09999999999999400, -1.776356839400250100E-015, 1.526928703281780000 ) ) ;
#155 = CIRCLE ( 'NONE', #171, 38.10000000000000100 ) ;
#156 = AXIS2_PLACEMENT_3D ( 'NONE', #97, #96, #12 ) ;
#157 = FACE_OUTER_BOUND ( 'NONE', #183, .T. ) ;
#158 = DIRECTION ( 'NONE',  ( -0.0000000000000000000, -0.0000000000000000000, -1.000000000000000000 ) ) ;
#159 = ORIENTED_EDGE ( 'NONE', *, *, #165, .T. ) ;
#160 = APPROVAL_STATUS ( 'not_yet_approved' ) ;
#161 = FACE_OUTER_BOUND ( 'NONE', #73, .T. ) ;
#162 = CARTESIAN_POINT ( 'NONE',  ( 0.0000000000000000000, 5.684341886080800200E-014, 476.1000000000000200 ) ) ;
#163 = ADVANCED_FACE ( 'NONE', ( #161 ), #107, .T. ) ;
#164 = PERSON_AND_ORGANIZATION ( #145, #40 ) ;
#165 = EDGE_CURVE ( 'NONE', #64, #192, #196, .T. ) ;
#166 = CC_DESIGN_APPROVAL ( #141, ( #41 ) ) ;
#167 = CALENDAR_DATE ( 2018, 13, 12 ) ;
#168 = CARTESIAN_POINT ( 'NONE',  ( -25.60435540204554200, 12.88027188579875400, -0.006458762839644734700 ) ) ;
#169 = ORIENTED_EDGE ( 'NONE', *, *, #1, .T. ) ;
#170 = PLANE ( 'NONE',  #95 ) ;
#171 = AXIS2_PLACEMENT_3D ( 'NONE', #69, #229, #212 ) ;
#172 = LOCAL_TIME ( 17, 12, 46.00000000000000000, #222 ) ;
#173 = DIRECTION ( 'NONE',  ( 1.000000000000000000, 0.0000000000000000000, -0.0000000000000000000 ) ) ;
#174 = CARTESIAN_POINT ( 'NONE',  ( 0.0000000000000000000, 77.92799999999999700, 6.000000000000000000 ) ) ;
#175 = PERSON_AND_ORGANIZATION ( #145, #40 ) ;
#176 = EDGE_LOOP ( 'NONE', ( #54, #190, #90, #2, #186 ) ) ;
#177 = CARTESIAN_POINT ( 'NONE',  ( 25.60435540204533900, 12.88027188579874500, -0.006458762839632374700 ) ) ;
#178 = PERSON_AND_ORGANIZATION_ROLE ( 'creator' ) ;
#179 = PERSON_AND_ORGANIZATION_ROLE ( 'creator' ) ;
#180 =( BOUNDED_SURFACE ( )  B_SPLINE_SURFACE ( 3, 3, ( 
 ( #7, #136, #205, #203 ),
 ( #79, #152, #206, #134 ),
 ( #94, #168, #227, #4 ),
 ( #59, #135, #61, #29 ) ),
 .UNSPECIFIED., .F., .F., .T. ) 
 B_SPLINE_SURFACE_WITH_KNOTS ( ( 4, 4 ),
 ( 4, 4 ),
 ( 0.0000000000000000000, 1.000000000000000000 ),
 ( 0.0000000000000000000, 1.000000000000000000 ),
 .UNSPECIFIED. ) 
 GEOMETRIC_REPRESENTATION_ITEM ( )  RATIONAL_B_SPLINE_SURFACE ( (
 ( 1.000000000000000000, 0.9994588236602172100, 0.9994588236602172100, 1.000000000000000000),
 ( 0.9978102994114488300, 0.9972703080858157400, 0.9972703080858157400, 0.9978102994114488300),
 ( 0.9978102994114488300, 0.9972703080858157400, 0.9972703080858157400, 0.9978102994114488300),
 ( 1.000000000000000000, 0.9994588236602172100, 0.9994588236602172100, 1.000000000000000000) ) ) 
 REPRESENTATION_ITEM ( '' )  SURFACE ( )  );
#181 =( NAMED_UNIT ( * ) SI_UNIT ( $, .STERADIAN. ) SOLID_ANGLE_UNIT ( ) );
#182 = CALENDAR_DATE ( 2018, 13, 12 ) ;
#183 = EDGE_LOOP ( 'NONE', ( #56, #149, #159 ) ) ;
#184 = AXIS2_PLACEMENT_3D ( 'NONE', #207, #210, #81 ) ;
#185 = FACE_OUTER_BOUND ( 'NONE', #176, .T. ) ;
#186 = ORIENTED_EDGE ( 'NONE', *, *, #42, .T. ) ;
#187 = CC_DESIGN_SECURITY_CLASSIFICATION ( #41, ( #68 ) ) ;
#188 = DIRECTION ( 'NONE',  ( 0.0000000000000000000, 0.0000000000000000000, 1.000000000000000000 ) ) ;
#189 = AXIS2_PLACEMENT_3D ( 'NONE', #139, #158, #144 ) ;
#190 = ORIENTED_EDGE ( 'NONE', *, *, #1, .F. ) ;
#191 = CARTESIAN_POINT ( 'NONE',  ( 12.75131808817516600, -38.55620384060905800, 1.563774675313764200 ) ) ;
#192 = VERTEX_POINT ( 'NONE', #143 ) ;
#193 = CARTESIAN_POINT ( 'NONE',  ( 38.09999999999999400, -1.776356839400250100E-015, 6.000000000000000000 ) ) ;
#194 = CARTESIAN_POINT ( 'NONE',  ( -38.10000000000000900, 2.889547465351166000E-015, 1.526928703281780000 ) ) ;
#195 = CC_DESIGN_PERSON_AND_ORGANIZATION_ASSIGNMENT ( #175, #122, ( #68 ) ) ;
#196 = CIRCLE ( 'NONE', #114, 38.10000000000000100 ) ;
#197 = ORIENTED_EDGE ( 'NONE', *, *, #42, .F. ) ;
#198 = PERSON_AND_ORGANIZATION_ROLE ( 'design_owner' ) ;
#199 = MECHANICAL_CONTEXT ( 'NONE', #74, 'mechanical' ) ;
#200 = CC_DESIGN_PERSON_AND_ORGANIZATION_ASSIGNMENT ( #225, #179, ( #68 ) ) ;
#201 = EDGE_CURVE ( 'NONE', #223, #64, #47, .T. ) ;
#202 = CIRCLE ( 'NONE', #103, 38.10000000000000100 ) ;
#203 = CARTESIAN_POINT ( 'NONE',  ( -2.220446049250313100E-013, -38.55620384060905800, 1.563774675313717200 ) ) ;
#204 = VECTOR ( 'NONE', #30, 1000.000000000000000 ) ;
#205 = CARTESIAN_POINT ( 'NONE',  ( -12.75131808817544200, -38.55620384060905800, 1.563774675313722700 ) ) ;
#206 = CARTESIAN_POINT ( 'NONE',  ( -12.80737598766730300, -12.88027188579870100, -0.5224021293547179700 ) ) ;
#207 = CARTESIAN_POINT ( 'NONE',  ( -9.325873406851310200E-015, -1.776356839400250100E-015, 6.000000000000000000 ) ) ;
#208 = PERSON_AND_ORGANIZATION ( #145, #40 ) ;
#209 = LINE ( 'NONE', #154, #204 ) ;
#210 = DIRECTION ( 'NONE',  ( -0.0000000000000000000, -0.0000000000000000000, -1.000000000000000000 ) ) ;
#211 = CARTESIAN_POINT ( 'NONE',  ( 25.49228510887489900, -38.55620384060906500, 2.077459757117601200 ) ) ;
#212 = DIRECTION ( 'NONE',  ( 1.000000000000000000, 0.0000000000000000000, 0.0000000000000000000 ) ) ;
#213 = AXIS2_PLACEMENT_3D ( 'NONE', #112, #6, #109 ) ;
#214 = DIRECTION ( 'NONE',  ( 0.0000000000000000000, 0.0000000000000000000, 1.000000000000000000 ) ) ;
#215 = APPLICATION_PROTOCOL_DEFINITION ( 'international standard', 'config_control_design', 1994, #16 ) ;
#216 = APPROVAL_PERSON_ORGANIZATION ( #76, #141, #15 ) ;
#217 = DATE_AND_TIME ( #125, #172 ) ;
#218 = DIRECTION ( 'NONE',  ( 1.000000000000000000, 0.0000000000000000000, 0.0000000000000000000 ) ) ;
#219 =( GEOMETRIC_REPRESENTATION_CONTEXT ( 3 ) GLOBAL_UNCERTAINTY_ASSIGNED_CONTEXT ( ( #228 ) ) GLOBAL_UNIT_ASSIGNED_CONTEXT ( ( #50, #101, #181 ) ) REPRESENTATION_CONTEXT ( 'NONE', 'WORKASPACE' ) );
#220 = APPROVAL_STATUS ( 'not_yet_approved' ) ;
#221 = APPROVAL_DATE_TIME ( #9, #141 ) ;
#222 = COORDINATED_UNIVERSAL_TIME_OFFSET ( 2, 0, .AHEAD. ) ;
#223 = VERTEX_POINT ( 'NONE', #63 ) ;
#224 = LOCAL_TIME ( 17, 12, 46.00000000000000000, #24 ) ;
#225 = PERSON_AND_ORGANIZATION ( #145, #40 ) ;
#226 = PERSON_AND_ORGANIZATION ( #145, #40 ) ;
#227 = CARTESIAN_POINT ( 'NONE',  ( -12.80737598766730300, 12.88027188579875200, -0.5224021293547150800 ) ) ;
#228 = UNCERTAINTY_MEASURE_WITH_UNIT (LENGTH_MEASURE( 1.000000000000000100E-005 ), #50, 'distance_accuracy_value', 'NONE');
#229 = DIRECTION ( 'NONE',  ( -0.0000000000000000000, -0.0000000000000000000, -1.000000000000000000 ) ) ;
#230 = CARTESIAN_POINT ( 'NONE',  ( 38.37016197569555900, -12.88027188579871000, 1.024590321162612600 ) ) ;
#231 =( BOUNDED_SURFACE ( )  B_SPLINE_SURFACE ( 3, 3, ( 
 ( #233, #191, #211, #98 ),
 ( #116, #8, #35, #230 ),
 ( #117, #33, #177, #85 ),
 ( #11, #119, #137, #82 ) ),
 .UNSPECIFIED., .F., .F., .T. ) 
 B_SPLINE_SURFACE_WITH_KNOTS ( ( 4, 4 ),
 ( 4, 4 ),
 ( 0.0000000000000000000, 1.000000000000000000 ),
 ( 0.0000000000000000000, 1.000000000000000000 ),
 .UNSPECIFIED. ) 
 GEOMETRIC_REPRESENTATION_ITEM ( )  RATIONAL_B_SPLINE_SURFACE ( (
 ( 1.000000000000000000, 0.9994588236602172100, 0.9994588236602172100, 1.000000000000000000),
 ( 0.9978102994114488300, 0.9972703080858157400, 0.9972703080858157400, 0.9978102994114488300),
 ( 0.9978102994114488300, 0.9972703080858157400, 0.9972703080858157400, 0.9978102994114488300),
 ( 1.000000000000000000, 0.9994588236602172100, 0.9994588236602172100, 1.000000000000000000) ) ) 
 REPRESENTATION_ITEM ( '' )  SURFACE ( )  );
#232 = DIRECTION ( 'NONE',  ( -0.0000000000000000000, -0.0000000000000000000, -1.000000000000000000 ) ) ;
#233 = CARTESIAN_POINT ( 'NONE',  ( -1.095332118293694400E-013, -38.55620384060905800, 1.563774675313767100 ) ) ;
#234 = APPROVAL_ROLE ( '' ) ;
#235 = ORIENTED_EDGE ( 'NONE', *, *, #105, .T. ) ;
ENDSEC;
END-ISO-10303-21;
