ISO-10303-21;
HEADER;
FILE_DESCRIPTION (( 'STEP AP203' ),
    '1' );
FILE_NAME ('110-1727E UVFS pl-cx 76.2 F500.STEP',
    '2018-12-13T15:12:54',
    ( '' ),
    ( '' ),
    'SwSTEP 2.0',
    'SolidWorks 2017',
    '' );
FILE_SCHEMA (( 'CONFIG_CONTROL_DESIGN' ));
ENDSEC;

DATA;
#1 = DIRECTION ( 'NONE',  ( -1.165588477296749900E-017, -5.434385993627839900E-034, -1.000000000000000000 ) ) ;
#2 = EDGE_CURVE ( 'NONE', #219, #184, #140, .T. ) ;
#3 = ADVANCED_FACE ( 'NONE', ( #193 ), #192, .T. ) ;
#4 = CC_DESIGN_PERSON_AND_ORGANIZATION_ASSIGNMENT ( #117, #73, ( #74 ) ) ;
#5 = DATE_AND_TIME ( #149, #32 ) ;
#6 = DATE_AND_TIME ( #163, #81 ) ;
#7 = CLOSED_SHELL ( 'NONE', ( #217, #147, #71, #3, #34 ) ) ;
#8 = AXIS2_PLACEMENT_3D ( 'NONE', #20, #57, #223 ) ;
#9 = SHAPE_DEFINITION_REPRESENTATION ( #63, #222 ) ;
#10 = CARTESIAN_POINT ( 'NONE',  ( -9.325873406851310200E-015, -1.776356839400250100E-015, 3.069393224296970100 ) ) ;
#11 = CARTESIAN_POINT ( 'NONE',  ( 38.09999999999999400, -1.776356839400250100E-015, 7.000000000000000000 ) ) ;
#12 = CARTESIAN_POINT ( 'NONE',  ( 25.76276720172820600, -12.96521788383067700, -0.01479811352904846800 ) ) ;
#13 = AXIS2_PLACEMENT_3D ( 'NONE', #10, #120, #46 ) ;
#14 = CARTESIAN_POINT ( 'NONE',  ( 5.145941749785049600E-014, -12.96521788383068200, -1.057086538603986000 ) ) ;
#15 = APPLICATION_CONTEXT ( 'configuration controlled 3d designs of mechanical parts and assemblies' ) ;
#16 = PERSON_AND_ORGANIZATION_ROLE ( 'design_supplier' ) ;
#17 = ORIENTED_EDGE ( 'NONE', *, *, #54, .T. ) ;
#18 = COORDINATED_UNIVERSAL_TIME_OFFSET ( 2, 0, .AHEAD. ) ;
#19 = EDGE_LOOP ( 'NONE', ( #17, #230, #171 ) ) ;
#20 = CARTESIAN_POINT ( 'NONE',  ( -9.325873406851310200E-015, -1.776356839400250100E-015, 3.069393224296970100 ) ) ;
#21 = DIRECTION ( 'NONE',  ( 0.0000000000000000000, 0.0000000000000000000, 1.000000000000000000 ) ) ;
#22 = SECURITY_CLASSIFICATION ( '', '', #132 ) ;
#23 = CARTESIAN_POINT ( 'NONE',  ( -38.49683832309994400, -12.96521788383069700, 2.062965892485018000 ) ) ;
#24 = CARTESIAN_POINT ( 'NONE',  ( -25.31009483829014800, 38.55318263982079000, 4.167311686697401800 ) ) ;
#25 = DIRECTION ( 'NONE',  ( 1.165588477296749900E-017, 5.434385993627839900E-034, 1.000000000000000000 ) ) ;
#26 = CIRCLE ( 'NONE', #199, 38.10000000000000100 ) ;
#27 =( LENGTH_UNIT ( ) NAMED_UNIT ( * ) SI_UNIT ( .MILLI., .METRE. ) );
#28 = PRODUCT_DEFINITION ( 'UNKNOWN', '', #74, #227 ) ;
#29 =( BOUNDED_SURFACE ( )  B_SPLINE_SURFACE ( 3, 3, ( 
 ( #115, #201, #100, #41 ),
 ( #23, #79, #40, #99 ),
 ( #152, #231, #170, #45 ),
 ( #167, #24, #62, #154 ) ),
 .UNSPECIFIED., .F., .F., .F. ) 
 B_SPLINE_SURFACE_WITH_KNOTS ( ( 4, 4 ),
 ( 4, 4 ),
 ( 0.0000000000000000000, 1.000000000000000000 ),
 ( 0.0000000000000000000, 1.000000000000000000 ),
 .UNSPECIFIED. ) 
 GEOMETRIC_REPRESENTATION_ITEM ( )  RATIONAL_B_SPLINE_SURFACE ( (
 ( 1.000000000000000000, 0.9978211903820014500, 0.9978211903820014500, 1.000000000000000000),
 ( 0.9911951341725744300, 0.9890355086809258200, 0.9890355086809258200, 0.9911951341725744300),
 ( 0.9911951341725744300, 0.9890355086809258200, 0.9890355086809258200, 0.9911951341725744300),
 ( 1.000000000000000000, 0.9978211903820014500, 0.9978211903820014500, 1.000000000000000000) ) ) 
 REPRESENTATION_ITEM ( '' )  SURFACE ( )  );
#30 = CARTESIAN_POINT ( 'NONE',  ( 12.90246761626780800, -12.96521788383067900, -1.057086538603985800 ) ) ;
#31 = ORIENTED_EDGE ( 'NONE', *, *, #125, .F. ) ;
#32 = LOCAL_TIME ( 17, 12, 54.00000000000000000, #182 ) ;
#33 = FACE_OUTER_BOUND ( 'NONE', #19, .T. ) ;
#34 = ADVANCED_FACE ( 'NONE', ( #106 ), #136, .T. ) ;
#35 = CC_DESIGN_DATE_AND_TIME_ASSIGNMENT ( #160, #108, ( #22 ) ) ;
#36 = FACE_OUTER_BOUND ( 'NONE', #148, .T. ) ;
#37 = DIRECTION ( 'NONE',  ( -1.165588477296749900E-017, -5.434385993627839900E-034, -1.000000000000000000 ) ) ;
#38 = UNCERTAINTY_MEASURE_WITH_UNIT (LENGTH_MEASURE( 1.000000000000000100E-005 ), #27, 'distance_accuracy_value', 'NONE');
#39 = VERTEX_POINT ( 'NONE', #185 ) ;
#40 = CARTESIAN_POINT ( 'NONE',  ( -12.90246761626781300, -12.96521788383069000, -1.057086538603966500 ) ) ;
#41 = CARTESIAN_POINT ( 'NONE',  ( 6.938893903907228400E-015, -38.55318263982073300, 3.143337100390958000 ) ) ;
#42 = DIRECTION ( 'NONE',  ( -1.165588477296749900E-017, -5.434385993627839900E-034, -1.000000000000000000 ) ) ;
#43 = VECTOR ( 'NONE', #123, 1000.000000000000000 ) ;
#44 = VERTEX_POINT ( 'NONE', #134 ) ;
#45 = CARTESIAN_POINT ( 'NONE',  ( 0.0000000000000000000, 12.96521788383075300, -1.057086538603966500 ) ) ;
#46 = DIRECTION ( 'NONE',  ( 1.000000000000000000, 0.0000000000000000000, -1.138269997360109700E-017 ) ) ;
#47 = CARTESIAN_POINT ( 'NONE',  ( 12.90246761626779900, 12.96521788383075300, -1.057086538603984500 ) ) ;
#48 = CARTESIAN_POINT ( 'NONE',  ( 37.82041817567699800, 38.55318263982079700, 6.208567722278551100 ) ) ;
#49 = ORIENTED_EDGE ( 'NONE', *, *, #104, .F. ) ;
#50 = MECHANICAL_CONTEXT ( 'NONE', #83, 'mechanical' ) ;
#51 = CC_DESIGN_SECURITY_CLASSIFICATION ( #22, ( #74 ) ) ;
#52 = CARTESIAN_POINT ( 'NONE',  ( 37.82041817567701300, -38.55318263982071900, 6.208567722278551100 ) ) ;
#53 = APPROVAL_STATUS ( 'not_yet_approved' ) ;
#54 = EDGE_CURVE ( 'NONE', #44, #186, #161, .T. ) ;
#55 = CC_DESIGN_APPROVAL ( #96, ( #28 ) ) ;
#56 = CYLINDRICAL_SURFACE ( 'NONE', #13, 38.10000000000000100 ) ;
#57 = DIRECTION ( 'NONE',  ( 1.165588477296749900E-017, 5.434385993627839900E-034, 1.000000000000000000 ) ) ;
#58 = DIRECTION ( 'NONE',  ( 1.000000000000000000, 0.0000000000000000000, -1.138269997360109700E-017 ) ) ;
#59 = PERSON_AND_ORGANIZATION ( #196, #153 ) ;
#60 = CC_DESIGN_PERSON_AND_ORGANIZATION_ASSIGNMENT ( #59, #90, ( #22 ) ) ;
#61 = DIRECTION ( 'NONE',  ( 2.441897141834630300E-016, -1.000000000000000000, -4.664802624475447800E-016 ) ) ;
#62 = CARTESIAN_POINT ( 'NONE',  ( -12.67576097158534400, 38.55318263982079000, 3.143337100390962000 ) ) ;
#63 = PRODUCT_DEFINITION_SHAPE ( 'NONE', 'NONE',  #28 ) ;
#64 = PERSON_AND_ORGANIZATION ( #196, #153 ) ;
#65 =( NAMED_UNIT ( * ) SI_UNIT ( $, .STERADIAN. ) SOLID_ANGLE_UNIT ( ) );
#66 = PRODUCT ( '110-1727E UVFS pl-cx 76.2 F500', '110-1727E UVFS pl-cx 76.2 F500', '', ( #50 ) ) ;
#67 = CC_DESIGN_APPROVAL ( #215, ( #74 ) ) ;
#68 = CARTESIAN_POINT ( 'NONE',  ( 25.76276720172819900, 12.96521788383075700, -0.01479811352904673300 ) ) ;
#69 = LOCAL_TIME ( 17, 12, 54.00000000000000000, #129 ) ;
#70 = CARTESIAN_POINT ( 'NONE',  ( 0.0000000000000000000, 0.0000000000000000000, 0.0000000000000000000 ) ) ;
#71 = ADVANCED_FACE ( 'NONE', ( #72 ), #29, .T. ) ;
#72 = FACE_OUTER_BOUND ( 'NONE', #235, .T. ) ;
#73 = PERSON_AND_ORGANIZATION_ROLE ( 'creator' ) ;
#74 = PRODUCT_DEFINITION_FORMATION_WITH_SPECIFIED_SOURCE ( 'ANY', '', #66, .NOT_KNOWN. ) ;
#75 = CALENDAR_DATE ( 2018, 13, 12 ) ;
#76 = ORIENTED_EDGE ( 'NONE', *, *, #2, .F. ) ;
#77 = CARTESIAN_POINT ( 'NONE',  ( -9.325873406851310200E-015, -1.776356839400250100E-015, 3.069393224296970600 ) ) ;
#78 = APPROVAL ( #109, 'UNSPECIFIED' ) ;
#79 = CARTESIAN_POINT ( 'NONE',  ( -25.76276720172826600, -12.96521788383069500, -0.01479811352902548700 ) ) ;
#80 = CARTESIAN_POINT ( 'NONE',  ( 38.09999999999999400, -1.776356839400250100E-015, 3.069393224296969700 ) ) ;
#81 = LOCAL_TIME ( 17, 12, 54.00000000000000000, #18 ) ;
#82 = AXIS2_PLACEMENT_3D ( 'NONE', #94, #37, #225 ) ;
#83 = APPLICATION_CONTEXT ( 'configuration controlled 3d designs of mechanical parts and assemblies' ) ;
#84 = CARTESIAN_POINT ( 'NONE',  ( 38.49683832309983700, 12.96521788383076400, 2.062965892484973600 ) ) ;
#85 = ORIENTED_EDGE ( 'NONE', *, *, #158, .F. ) ;
#86 = DIRECTION ( 'NONE',  ( 1.000000000000000000, 0.0000000000000000000, 0.0000000000000000000 ) ) ;
#87 = LINE ( 'NONE', #232, #114 ) ;
#88 = ORIENTED_EDGE ( 'NONE', *, *, #139, .T. ) ;
#89 = APPROVAL_ROLE ( '' ) ;
#90 = PERSON_AND_ORGANIZATION_ROLE ( 'classification_officer' ) ;
#91 = VERTEX_POINT ( 'NONE', #137 ) ;
#92 = CC_DESIGN_PERSON_AND_ORGANIZATION_ASSIGNMENT ( #205, #16, ( #74 ) ) ;
#93 = PERSON_AND_ORGANIZATION ( #196, #153 ) ;
#94 = CARTESIAN_POINT ( 'NONE',  ( -9.280058707185871100E-015, -1.776356839400250100E-015, 7.000000000000000900 ) ) ;
#95 = ORIENTED_EDGE ( 'NONE', *, *, #158, .T. ) ;
#96 = APPROVAL ( #53, 'UNSPECIFIED' ) ;
#97 = DIRECTION ( 'NONE',  ( 1.000000000000000000, 2.441897141834629800E-016, -3.576540790375509800E-017 ) ) ;
#98 = CALENDAR_DATE ( 2018, 13, 12 ) ;
#99 = CARTESIAN_POINT ( 'NONE',  ( 0.0000000000000000000, -12.96521788383068400, -1.057086538603970100 ) ) ;
#100 = CARTESIAN_POINT ( 'NONE',  ( -12.67576097158531900, -38.55318263982074000, 3.143337100390961600 ) ) ;
#101 = CALENDAR_DATE ( 2018, 13, 12 ) ;
#102 =( NAMED_UNIT ( * ) PLANE_ANGLE_UNIT ( ) SI_UNIT ( $, .RADIAN. ) );
#103 = CARTESIAN_POINT ( 'NONE',  ( -9.325873406851310200E-015, -1.776356839400250100E-015, 3.069393224296970600 ) ) ;
#104 = EDGE_CURVE ( 'NONE', #44, #184, #183, .T. ) ;
#105 = DIRECTION ( 'NONE',  ( 0.0000000000000000000, 0.0000000000000000000, 1.000000000000000000 ) ) ;
#106 = FACE_OUTER_BOUND ( 'NONE', #142, .T. ) ;
#107 = CARTESIAN_POINT ( 'NONE',  ( 3.902938386360810400E-014, 38.55318263982079000, 3.143337100390941600 ) ) ;
#108 = DATE_TIME_ROLE ( 'classification_date' ) ;
#109 = APPROVAL_STATUS ( 'not_yet_approved' ) ;
#110 = COORDINATED_UNIVERSAL_TIME_OFFSET ( 2, 0, .AHEAD. ) ;
#111 =( GEOMETRIC_REPRESENTATION_CONTEXT ( 3 ) GLOBAL_UNCERTAINTY_ASSIGNED_CONTEXT ( ( #38 ) ) GLOBAL_UNIT_ASSIGNED_CONTEXT ( ( #27, #102, #65 ) ) REPRESENTATION_CONTEXT ( 'NONE', 'WORKASPACE' ) );
#112 = PERSON_AND_ORGANIZATION ( #196, #153 ) ;
#113 = DIRECTION ( 'NONE',  ( -1.165588477296749900E-017, -5.434385993627839900E-034, -1.000000000000000000 ) ) ;
#114 = VECTOR ( 'NONE', #25, 1000.000000000000000 ) ;
#115 = CARTESIAN_POINT ( 'NONE',  ( -37.82041817567710500, -38.55318263982073300, 6.208567722278596400 ) ) ;
#116 = DIRECTION ( 'NONE',  ( 1.000000000000000000, 0.0000000000000000000, -0.0000000000000000000 ) ) ;
#117 = PERSON_AND_ORGANIZATION ( #196, #153 ) ;
#118 = DIRECTION ( 'NONE',  ( 1.000000000000000000, -8.881784197001252300E-016, -1.138269997360109700E-017 ) ) ;
#119 = DIRECTION ( 'NONE',  ( 1.000000000000000000, 0.0000000000000000000, -1.138269997360109700E-017 ) ) ;
#120 = DIRECTION ( 'NONE',  ( 1.165588477296749900E-017, 5.434385993627839900E-034, 1.000000000000000000 ) ) ;
#121 = APPROVAL_DATE_TIME ( #144, #96 ) ;
#122 = ORIENTED_EDGE ( 'NONE', *, *, #2, .T. ) ;
#123 = DIRECTION ( 'NONE',  ( 1.165588477296749900E-017, 5.434385993627839900E-034, 1.000000000000000000 ) ) ;
#124 = CARTESIAN_POINT ( 'NONE',  ( 25.31009483829009500, -38.55318263982071900, 4.167311686697377800 ) ) ;
#125 = EDGE_CURVE ( 'NONE', #186, #39, #128, .T. ) ;
#126 = CARTESIAN_POINT ( 'NONE',  ( 5.785796516296946100E-014, -38.55318263982072600, 3.143337100390941600 ) ) ;
#127 = CARTESIAN_POINT ( 'NONE',  ( 12.67576097158532500, -38.55318263982072600, 3.143337100390942100 ) ) ;
#128 = CIRCLE ( 'NONE', #174, 238.0000000000000000 ) ;
#129 = COORDINATED_UNIVERSAL_TIME_OFFSET ( 2, 0, .AHEAD. ) ;
#130 = APPROVAL_ROLE ( '' ) ;
#131 = CC_DESIGN_PERSON_AND_ORGANIZATION_ASSIGNMENT ( #93, #173, ( #28 ) ) ;
#132 = SECURITY_CLASSIFICATION_LEVEL ( 'unclassified' ) ;
#133 = CC_DESIGN_PERSON_AND_ORGANIZATION_ASSIGNMENT ( #200, #175, ( #66 ) ) ;
#134 = CARTESIAN_POINT ( 'NONE',  ( 38.09999999999999400, -1.776356839400250100E-015, 3.069393224296970100 ) ) ;
#135 = EDGE_CURVE ( 'NONE', #91, #39, #195, .T. ) ;
#136 = PLANE ( 'NONE',  #187 ) ;
#137 = CARTESIAN_POINT ( 'NONE',  ( -38.10000000000000900, 2.889547465351166000E-015, 3.069393224296971000 ) ) ;
#138 = CARTESIAN_POINT ( 'NONE',  ( 5.774465799078820900E-014, -38.09999999999988100, 3.069393224296971900 ) ) ;
#139 = EDGE_CURVE ( 'NONE', #91, #219, #87, .T. ) ;
#140 = CIRCLE ( 'NONE', #82, 38.10000000000000100 ) ;
#141 = DIRECTION ( 'NONE',  ( -1.165588477296749900E-017, -5.434385993627839900E-034, -1.000000000000000000 ) ) ;
#142 = EDGE_LOOP ( 'NONE', ( #85, #76 ) ) ;
#143 = APPLICATION_PROTOCOL_DEFINITION ( 'international standard', 'config_control_design', 1994, #83 ) ;
#144 = DATE_AND_TIME ( #98, #150 ) ;
#145 = ORIENTED_EDGE ( 'NONE', *, *, #54, .F. ) ;
#146 = EDGE_CURVE ( 'NONE', #39, #44, #26, .T. ) ;
#147 = ADVANCED_FACE ( 'NONE', ( #36 ), #56, .T. ) ;
#148 = EDGE_LOOP ( 'NONE', ( #189, #88, #122, #49, #151 ) ) ;
#149 = CALENDAR_DATE ( 2018, 13, 12 ) ;
#150 = LOCAL_TIME ( 17, 12, 54.00000000000000000, #207 ) ;
#151 = ORIENTED_EDGE ( 'NONE', *, *, #146, .F. ) ;
#152 = CARTESIAN_POINT ( 'NONE',  ( -38.49683832309994400, 12.96521788383073900, 2.062965892485019800 ) ) ;
#153 = ORGANIZATION ( 'UNSPECIFIED', 'UNSPECIFIED', '' ) ;
#154 = CARTESIAN_POINT ( 'NONE',  ( -1.387778780781445700E-014, 38.55318263982078300, 3.143337100390958000 ) ) ;
#155 = APPROVAL_DATE_TIME ( #203, #215 ) ;
#156 = ORIENTED_EDGE ( 'NONE', *, *, #169, .T. ) ;
#157 = CARTESIAN_POINT ( 'NONE',  ( 25.31009483829008000, 38.55318263982079700, 4.167311686697377800 ) ) ;
#158 = EDGE_CURVE ( 'NONE', #184, #219, #228, .T. ) ;
#159 = CARTESIAN_POINT ( 'NONE',  ( 4.512747179909260200E-014, 12.96521788383075500, -1.057086538603983800 ) ) ;
#160 = DATE_AND_TIME ( #101, #197 ) ;
#161 = CIRCLE ( 'NONE', #181, 38.10000000000000100 ) ;
#162 = ORIENTED_EDGE ( 'NONE', *, *, #169, .F. ) ;
#163 = CALENDAR_DATE ( 2018, 13, 12 ) ;
#164 = APPROVAL_DATE_TIME ( #5, #78 ) ;
#165 = PERSON_AND_ORGANIZATION ( #196, #153 ) ;
#166 = CARTESIAN_POINT ( 'NONE',  ( 0.0000000000000000000, 77.92799999999999700, 7.000000000000000000 ) ) ;
#167 = CARTESIAN_POINT ( 'NONE',  ( -37.82041817567712600, 38.55318263982077600, 6.208567722278596400 ) ) ;
#168 = AXIS2_PLACEMENT_3D ( 'NONE', #70, #105, #86 ) ;
#169 = EDGE_CURVE ( 'NONE', #186, #91, #188, .T. ) ;
#170 = CARTESIAN_POINT ( 'NONE',  ( -12.90246761626781300, 12.96521788383074500, -1.057086538603963600 ) ) ;
#171 = ORIENTED_EDGE ( 'NONE', *, *, #146, .T. ) ;
#172 = CARTESIAN_POINT ( 'NONE',  ( -38.10000000000000900, 2.889547465351166000E-015, 7.000000000000001800 ) ) ;
#173 = PERSON_AND_ORGANIZATION_ROLE ( 'creator' ) ;
#174 = AXIS2_PLACEMENT_3D ( 'NONE', #206, #97, #61 ) ;
#175 = PERSON_AND_ORGANIZATION_ROLE ( 'design_owner' ) ;
#176 = EDGE_LOOP ( 'NONE', ( #224, #162, #145, #179, #95 ) ) ;
#177 = CARTESIAN_POINT ( 'NONE',  ( 38.49683832309984400, -12.96521788383067400, 2.062965892484971900 ) ) ;
#178 = CARTESIAN_POINT ( 'NONE',  ( 12.67576097158531000, 38.55318263982079000, 3.143337100390942100 ) ) ;
#179 = ORIENTED_EDGE ( 'NONE', *, *, #104, .T. ) ;
#180 = DATE_TIME_ROLE ( 'creation_date' ) ;
#181 = AXIS2_PLACEMENT_3D ( 'NONE', #77, #113, #58 ) ;
#182 = COORDINATED_UNIVERSAL_TIME_OFFSET ( 2, 0, .AHEAD. ) ;
#183 = LINE ( 'NONE', #80, #43 ) ;
#184 = VERTEX_POINT ( 'NONE', #11 ) ;
#185 = CARTESIAN_POINT ( 'NONE',  ( 3.913740177000838400E-014, 38.09999999999992300, 3.069393224296957700 ) ) ;
#186 = VERTEX_POINT ( 'NONE', #138 ) ;
#187 = AXIS2_PLACEMENT_3D ( 'NONE', #166, #21, #116 ) ;
#188 = CIRCLE ( 'NONE', #202, 38.10000000000000100 ) ;
#189 = ORIENTED_EDGE ( 'NONE', *, *, #135, .F. ) ;
#190 = CC_DESIGN_DATE_AND_TIME_ASSIGNMENT ( #6, #180, ( #28 ) ) ;
#191 = CC_DESIGN_APPROVAL ( #78, ( #22 ) ) ;
#192 = CYLINDRICAL_SURFACE ( 'NONE', #8, 38.10000000000000100 ) ;
#193 = FACE_OUTER_BOUND ( 'NONE', #176, .T. ) ;
#194 = APPLICATION_PROTOCOL_DEFINITION ( 'international standard', 'config_control_design', 1994, #15 ) ;
#195 = CIRCLE ( 'NONE', #211, 38.10000000000000100 ) ;
#196 = PERSON ( 'UNSPECIFIED', 'UNSPECIFIED', 'UNSPECIFIED', ('UNSPECIFIED'), ('UNSPECIFIED'), ('UNSPECIFIED') ) ;
#197 = LOCAL_TIME ( 17, 12, 54.00000000000000000, #110 ) ;
#198 = APPROVAL_STATUS ( 'not_yet_approved' ) ;
#199 = AXIS2_PLACEMENT_3D ( 'NONE', #208, #42, #118 ) ;
#200 = PERSON_AND_ORGANIZATION ( #196, #153 ) ;
#201 = CARTESIAN_POINT ( 'NONE',  ( -25.31009483829013000, -38.55318263982074000, 4.167311686697401800 ) ) ;
#202 = AXIS2_PLACEMENT_3D ( 'NONE', #103, #1, #234 ) ;
#203 = DATE_AND_TIME ( #75, #69 ) ;
#204 = APPROVAL_PERSON_ORGANIZATION ( #112, #78, #130 ) ;
#205 = PERSON_AND_ORGANIZATION ( #196, #153 ) ;
#206 = CARTESIAN_POINT ( 'NONE',  ( 5.684341886080800200E-014, 4.263256414560599900E-014, 238.0000000000000300 ) ) ;
#207 = COORDINATED_UNIVERSAL_TIME_OFFSET ( 2, 0, .AHEAD. ) ;
#208 = CARTESIAN_POINT ( 'NONE',  ( -9.325873406851310200E-015, -1.776356839400250100E-015, 3.069393224296970600 ) ) ;
#209 = DIRECTION ( 'NONE',  ( 1.000000000000000000, 0.0000000000000000000, -2.276539994720219300E-017 ) ) ;
#210 = CARTESIAN_POINT ( 'NONE',  ( -9.280058707185871100E-015, -1.776356839400250100E-015, 7.000000000000000900 ) ) ;
#211 = AXIS2_PLACEMENT_3D ( 'NONE', #226, #141, #119 ) ;
#212 = APPROVAL_PERSON_ORGANIZATION ( #165, #96, #213 ) ;
#213 = APPROVAL_ROLE ( '' ) ;
#214 = DIRECTION ( 'NONE',  ( -1.165588477296749900E-017, -5.434385993627839900E-034, -1.000000000000000000 ) ) ;
#215 = APPROVAL ( #198, 'UNSPECIFIED' ) ;
#216 = MANIFOLD_SOLID_BREP ( 'Imported1', #7 ) ;
#217 = ADVANCED_FACE ( 'NONE', ( #33 ), #233, .T. ) ;
#218 = PRODUCT_RELATED_PRODUCT_CATEGORY ( 'detail', '', ( #66 ) ) ;
#219 = VERTEX_POINT ( 'NONE', #172 ) ;
#220 = APPROVAL_PERSON_ORGANIZATION ( #64, #215, #89 ) ;
#221 = ORIENTED_EDGE ( 'NONE', *, *, #135, .T. ) ;
#222 = ADVANCED_BREP_SHAPE_REPRESENTATION ( '110-1727E UVFS pl-cx 76.2 F500', ( #216, #168 ), #111 ) ;
#223 = DIRECTION ( 'NONE',  ( 1.000000000000000000, 0.0000000000000000000, -1.138269997360109700E-017 ) ) ;
#224 = ORIENTED_EDGE ( 'NONE', *, *, #139, .F. ) ;
#225 = DIRECTION ( 'NONE',  ( 1.000000000000000000, 0.0000000000000000000, -2.276539994720219300E-017 ) ) ;
#226 = CARTESIAN_POINT ( 'NONE',  ( -9.325873406851310200E-015, -1.776356839400250100E-015, 3.069393224296970600 ) ) ;
#227 = DESIGN_CONTEXT ( 'detailed design', #15, 'design' ) ;
#228 = CIRCLE ( 'NONE', #229, 38.10000000000000100 ) ;
#229 = AXIS2_PLACEMENT_3D ( 'NONE', #210, #214, #209 ) ;
#230 = ORIENTED_EDGE ( 'NONE', *, *, #125, .T. ) ;
#231 = CARTESIAN_POINT ( 'NONE',  ( -25.76276720172826600, 12.96521788383073900, -0.01479811352902331600 ) ) ;
#232 = CARTESIAN_POINT ( 'NONE',  ( -38.10000000000000900, 2.889547465351166000E-015, 3.069393224296970600 ) ) ;
#233 =( BOUNDED_SURFACE ( )  B_SPLINE_SURFACE ( 3, 3, ( 
 ( #126, #127, #124, #52 ),
 ( #14, #30, #12, #177 ),
 ( #159, #47, #68, #84 ),
 ( #107, #178, #157, #48 ) ),
 .UNSPECIFIED., .F., .F., .F. ) 
 B_SPLINE_SURFACE_WITH_KNOTS ( ( 4, 4 ),
 ( 4, 4 ),
 ( 0.0000000000000000000, 1.000000000000000000 ),
 ( 0.0000000000000000000, 1.000000000000000000 ),
 .UNSPECIFIED. ) 
 GEOMETRIC_REPRESENTATION_ITEM ( )  RATIONAL_B_SPLINE_SURFACE ( (
 ( 1.000000000000000000, 0.9978211903820016800, 0.9978211903820016800, 1.000000000000000000),
 ( 0.9911951341725744300, 0.9890355086809260500, 0.9890355086809260500, 0.9911951341725744300),
 ( 0.9911951341725744300, 0.9890355086809260500, 0.9890355086809260500, 0.9911951341725744300),
 ( 1.000000000000000000, 0.9978211903820016800, 0.9978211903820016800, 1.000000000000000000) ) ) 
 REPRESENTATION_ITEM ( '' )  SURFACE ( )  );
#234 = DIRECTION ( 'NONE',  ( 1.000000000000000000, 0.0000000000000000000, -1.138269997360109700E-017 ) ) ;
#235 = EDGE_LOOP ( 'NONE', ( #31, #156, #221 ) ) ;
ENDSEC;
END-ISO-10303-21;
