ISO-10303-21;
HEADER;
FILE_DESCRIPTION (( 'STEP AP203' ),
    '1' );
FILE_NAME ('110-1717E UVFS pl-cx 76.2 F250.STEP',
    '2018-12-13T15:13:12',
    ( '' ),
    ( '' ),
    'SwSTEP 2.0',
    'SolidWorks 2017',
    '' );
FILE_SCHEMA (( 'CONFIG_CONTROL_DESIGN' ));
ENDSEC;

DATA;
#1 = ORIENTED_EDGE ( 'NONE', *, *, #133, .T. ) ;
#2 = CC_DESIGN_SECURITY_CLASSIFICATION ( #101, ( #190 ) ) ;
#3 = DIRECTION ( 'NONE',  ( 1.000000000000000000, 0.0000000000000000000, 0.0000000000000000000 ) ) ;
#4 = LOCAL_TIME ( 17, 13, 12.00000000000000000, #188 ) ;
#5 =( GEOMETRIC_REPRESENTATION_CONTEXT ( 3 ) GLOBAL_UNCERTAINTY_ASSIGNED_CONTEXT ( ( #165 ) ) GLOBAL_UNIT_ASSIGNED_CONTEXT ( ( #91, #82, #62 ) ) REPRESENTATION_CONTEXT ( 'NONE', 'WORKASPACE' ) );
#6 = CARTESIAN_POINT ( 'NONE',  ( 36.25496008204146400, -38.54060450110139900, 12.41107152176047100 ) ) ;
#7 = ORIENTED_EDGE ( 'NONE', *, *, #89, .T. ) ;
#8 = DIRECTION ( 'NONE',  ( 0.0000000000000000000, 0.0000000000000000000, 1.000000000000000000 ) ) ;
#9 = DIRECTION ( 'NONE',  ( 1.000000000000000000, 0.0000000000000000000, 0.0000000000000000000 ) ) ;
#10 = EDGE_LOOP ( 'NONE', ( #52, #103, #211, #1, #36 ) ) ;
#11 = DIRECTION ( 'NONE',  ( 0.0000000000000000000, 0.0000000000000000000, 1.000000000000000000 ) ) ;
#12 = DIRECTION ( 'NONE',  ( 1.000000000000000000, 0.0000000000000000000, -0.0000000000000000000 ) ) ;
#13 = CIRCLE ( 'NONE', #218, 38.10000000000000100 ) ;
#14 = PERSON_AND_ORGANIZATION_ROLE ( 'creator' ) ;
#15 = APPROVAL_ROLE ( '' ) ;
#16 = AXIS2_PLACEMENT_3D ( 'NONE', #230, #115, #12 ) ;
#17 = LOCAL_TIME ( 17, 13, 12.00000000000000000, #131 ) ;
#18 = VERTEX_POINT ( 'NONE', #75 ) ;
#19 = ORIENTED_EDGE ( 'NONE', *, *, #128, .F. ) ;
#20 = LINE ( 'NONE', #228, #126 ) ;
#21 = CARTESIAN_POINT ( 'NONE',  ( 24.55364899485846300, 38.54060450110144800, 8.431009310515159800 ) ) ;
#22 = VERTEX_POINT ( 'NONE', #167 ) ;
#23 = DIRECTION ( 'NONE',  ( 1.000000000000000000, 0.0000000000000000000, 0.0000000000000000000 ) ) ;
#24 = DIRECTION ( 'NONE',  ( -0.0000000000000000000, -0.0000000000000000000, -1.000000000000000000 ) ) ;
#25 = PERSON_AND_ORGANIZATION ( #55, #125 ) ;
#26 = PRODUCT_RELATED_PRODUCT_CATEGORY ( 'detail', '', ( #171 ) ) ;
#27 = CARTESIAN_POINT ( 'NONE',  ( 6.938893903907228400E-015, -13.32569247416206800, -2.217664718257226700 ) ) ;
#28 =( BOUNDED_SURFACE ( )  B_SPLINE_SURFACE ( 3, 3, ( 
 ( #168, #149, #205, #6 ),
 ( #41, #152, #207, #106 ),
 ( #71, #169, #224, #43 ),
 ( #130, #132, #21, #53 ) ),
 .UNSPECIFIED., .F., .F., .F. ) 
 B_SPLINE_SURFACE_WITH_KNOTS ( ( 4, 4 ),
 ( 4, 4 ),
 ( 0.0000000000000000000, 1.000000000000000000 ),
 ( 0.0000000000000000000, 1.000000000000000000 ),
 .UNSPECIFIED. ) 
 GEOMETRIC_REPRESENTATION_ITEM ( )  RATIONAL_B_SPLINE_SURFACE ( (
 ( 1.000000000000000000, 0.9910622337238571600, 0.9910622337238571600, 1.000000000000000000),
 ( 0.9640675853763923700, 0.9554509746238928300, 0.9554509746238928300, 0.9640675853763923700),
 ( 0.9640675853763923700, 0.9554509746238928300, 0.9554509746238928300, 0.9640675853763923700),
 ( 1.000000000000000000, 0.9910622337238571600, 0.9910622337238571600, 1.000000000000000000) ) ) 
 REPRESENTATION_ITEM ( '' )  SURFACE ( )  );
#29 = EDGE_LOOP ( 'NONE', ( #157, #163, #117 ) ) ;
#30 = CC_DESIGN_PERSON_AND_ORGANIZATION_ASSIGNMENT ( #145, #141, ( #190 ) ) ;
#31 = APPLICATION_CONTEXT ( 'configuration controlled 3d designs of mechanical parts and assemblies' ) ;
#32 = MANIFOLD_SOLID_BREP ( 'Imported1', #108 ) ;
#33 = AXIS2_PLACEMENT_3D ( 'NONE', #96, #59, #92 ) ;
#34 = FACE_OUTER_BOUND ( 'NONE', #199, .T. ) ;
#35 = APPROVAL_ROLE ( '' ) ;
#36 = ORIENTED_EDGE ( 'NONE', *, *, #74, .T. ) ;
#37 = APPROVAL_PERSON_ORGANIZATION ( #212, #122, #15 ) ;
#38 = CC_DESIGN_PERSON_AND_ORGANIZATION_ASSIGNMENT ( #44, #158, ( #171 ) ) ;
#39 = SHAPE_DEFINITION_REPRESENTATION ( #124, #102 ) ;
#40 = FACE_OUTER_BOUND ( 'NONE', #29, .T. ) ;
#41 = CARTESIAN_POINT ( 'NONE',  ( 2.734030724317728100E-014, -13.32569247416206800, -2.217664718257204900 ) ) ;
#42 = CC_DESIGN_PERSON_AND_ORGANIZATION_ASSIGNMENT ( #189, #143, ( #101 ) ) ;
#43 = CARTESIAN_POINT ( 'NONE',  ( 39.03450782328888400, 13.32569247416211400, 4.239251315001328500 ) ) ;
#44 = PERSON_AND_ORGANIZATION ( #55, #125 ) ;
#45 = DIRECTION ( 'NONE',  ( 1.000000000000000000, 0.0000000000000000000, 0.0000000000000000000 ) ) ;
#46 = CARTESIAN_POINT ( 'NONE',  ( -39.03450782328892600, 13.32569247416209100, 4.239251315001351500 ) ) ;
#47 = PERSON_AND_ORGANIZATION ( #55, #125 ) ;
#48 = PLANE ( 'NONE',  #16 ) ;
#49 = APPLICATION_CONTEXT ( 'configuration controlled 3d designs of mechanical parts and assemblies' ) ;
#50 = DIRECTION ( 'NONE',  ( 1.000000000000000000, 0.0000000000000000000, 0.0000000000000000000 ) ) ;
#51 = CC_DESIGN_DATE_AND_TIME_ASSIGNMENT ( #198, #64, ( #70 ) ) ;
#52 = ORIENTED_EDGE ( 'NONE', *, *, #185, .F. ) ;
#53 = CARTESIAN_POINT ( 'NONE',  ( 36.25496008204146400, 38.54060450110144800, 12.41107152176045900 ) ) ;
#54 = CARTESIAN_POINT ( 'NONE',  ( -26.43609596069714800, -13.32569247416207500, -0.04594908710823467800 ) ) ;
#55 = PERSON ( 'UNSPECIFIED', 'UNSPECIFIED', 'UNSPECIFIED', ('UNSPECIFIED'), ('UNSPECIFIED'), ('UNSPECIFIED') ) ;
#56 = DIRECTION ( 'NONE',  ( 1.000000000000000000, 2.441897141834629800E-016, -3.576540790375509800E-017 ) ) ;
#57 = APPROVAL_PERSON_ORGANIZATION ( #221, #202, #83 ) ;
#58 = CARTESIAN_POINT ( 'NONE',  ( 1.387778780781445700E-014, -38.54060450110140600, 6.413936010313944900 ) ) ;
#59 = DIRECTION ( 'NONE',  ( -0.0000000000000000000, -0.0000000000000000000, -1.000000000000000000 ) ) ;
#60 = CARTESIAN_POINT ( 'NONE',  ( -39.03450782328891900, -13.32569247416208000, 4.239251315001364000 ) ) ;
#61 = EDGE_LOOP ( 'NONE', ( #19, #217, #213 ) ) ;
#62 =( NAMED_UNIT ( * ) SI_UNIT ( $, .STERADIAN. ) SOLID_ANGLE_UNIT ( ) );
#63 = CC_DESIGN_DATE_AND_TIME_ASSIGNMENT ( #139, #182, ( #101 ) ) ;
#64 = DATE_TIME_ROLE ( 'creation_date' ) ;
#65 = COORDINATED_UNIVERSAL_TIME_OFFSET ( 2, 0, .AHEAD. ) ;
#66 = FACE_OUTER_BOUND ( 'NONE', #10, .T. ) ;
#67 =( BOUNDED_SURFACE ( )  B_SPLINE_SURFACE ( 3, 3, ( 
 ( #77, #107, #114, #58 ),
 ( #60, #54, #154, #27 ),
 ( #46, #208, #174, #110 ),
 ( #153, #138, #225, #175 ) ),
 .UNSPECIFIED., .F., .F., .F. ) 
 B_SPLINE_SURFACE_WITH_KNOTS ( ( 4, 4 ),
 ( 4, 4 ),
 ( 0.0000000000000000000, 1.000000000000000000 ),
 ( 0.0000000000000000000, 1.000000000000000000 ),
 .UNSPECIFIED. ) 
 GEOMETRIC_REPRESENTATION_ITEM ( )  RATIONAL_B_SPLINE_SURFACE ( (
 ( 1.000000000000000000, 0.9910622337238571600, 0.9910622337238571600, 1.000000000000000000),
 ( 0.9640675853763923700, 0.9554509746238928300, 0.9554509746238928300, 0.9640675853763923700),
 ( 0.9640675853763923700, 0.9554509746238928300, 0.9554509746238928300, 0.9640675853763923700),
 ( 1.000000000000000000, 0.9910622337238571600, 0.9910622337238571600, 1.000000000000000000) ) ) 
 REPRESENTATION_ITEM ( '' )  SURFACE ( )  );
#68 = AXIS2_PLACEMENT_3D ( 'NONE', #227, #172, #9 ) ;
#69 = APPROVAL_PERSON_ORGANIZATION ( #25, #88, #35 ) ;
#70 = PRODUCT_DEFINITION ( 'UNKNOWN', '', #190, #232 ) ;
#71 = CARTESIAN_POINT ( 'NONE',  ( 2.083231317005254700E-014, 13.32569247416210700, -2.217664718257218700 ) ) ;
#72 = CARTESIAN_POINT ( 'NONE',  ( -9.325873406851310200E-015, -1.776356839400250100E-015, 9.000000000000001800 ) ) ;
#73 = COORDINATED_UNIVERSAL_TIME_OFFSET ( 2, 0, .AHEAD. ) ;
#74 = EDGE_CURVE ( 'NONE', #151, #18, #193, .T. ) ;
#75 = CARTESIAN_POINT ( 'NONE',  ( -38.10000000000000900, 2.889547465351166000E-015, 9.000000000000001800 ) ) ;
#76 = CC_DESIGN_APPROVAL ( #122, ( #101 ) ) ;
#77 = CARTESIAN_POINT ( 'NONE',  ( -36.25496008204149200, -38.54060450110141300, 12.41107152176049200 ) ) ;
#78 = CARTESIAN_POINT ( 'NONE',  ( 2.842170943040400100E-014, 2.131628207280299900E-014, 119.0000000000000100 ) ) ;
#79 = CARTESIAN_POINT ( 'NONE',  ( 38.09999999999999400, -1.776356839400250100E-015, 9.000000000000001800 ) ) ;
#80 = DIRECTION ( 'NONE',  ( 0.0000000000000000000, 0.0000000000000000000, 1.000000000000000000 ) ) ;
#81 = DATE_AND_TIME ( #210, #17 ) ;
#82 =( NAMED_UNIT ( * ) PLANE_ANGLE_UNIT ( ) SI_UNIT ( $, .RADIAN. ) );
#83 = APPROVAL_ROLE ( '' ) ;
#84 = CALENDAR_DATE ( 2018, 13, 12 ) ;
#85 = VERTEX_POINT ( 'NONE', #192 ) ;
#86 = CC_DESIGN_PERSON_AND_ORGANIZATION_ASSIGNMENT ( #127, #14, ( #70 ) ) ;
#87 = CARTESIAN_POINT ( 'NONE',  ( -9.325873406851310200E-015, -1.776356839400250100E-015, 6.264069613986860600 ) ) ;
#88 = APPROVAL ( #234, 'UNSPECIFIED' ) ;
#89 = EDGE_CURVE ( 'NONE', #18, #151, #13, .T. ) ;
#90 = LINE ( 'NONE', #129, #200 ) ;
#91 =( LENGTH_UNIT ( ) NAMED_UNIT ( * ) SI_UNIT ( .MILLI., .METRE. ) );
#92 = DIRECTION ( 'NONE',  ( 1.000000000000000000, 0.0000000000000000000, 0.0000000000000000000 ) ) ;
#93 = DIRECTION ( 'NONE',  ( 1.000000000000000000, 0.0000000000000000000, 0.0000000000000000000 ) ) ;
#94 = DIRECTION ( 'NONE',  ( 1.000000000000000000, 8.881784197001252300E-016, 0.0000000000000000000 ) ) ;
#95 = ORIENTED_EDGE ( 'NONE', *, *, #133, .F. ) ;
#96 = CARTESIAN_POINT ( 'NONE',  ( -9.325873406851310200E-015, -1.776356839400250100E-015, 6.264069613986860600 ) ) ;
#97 = ORIENTED_EDGE ( 'NONE', *, *, #185, .T. ) ;
#98 = MECHANICAL_CONTEXT ( 'NONE', #49, 'mechanical' ) ;
#99 = APPLICATION_PROTOCOL_DEFINITION ( 'international standard', 'config_control_design', 1994, #31 ) ;
#100 = ORIENTED_EDGE ( 'NONE', *, *, #197, .F. ) ;
#101 = SECURITY_CLASSIFICATION ( '', '', #180 ) ;
#102 = ADVANCED_BREP_SHAPE_REPRESENTATION ( '110-1717E UVFS pl-cx 76.2 F250', ( #32, #161 ), #5 ) ;
#103 = ORIENTED_EDGE ( 'NONE', *, *, #162, .F. ) ;
#104 = ORIENTED_EDGE ( 'NONE', *, *, #74, .F. ) ;
#105 = CC_DESIGN_APPROVAL ( #88, ( #190 ) ) ;
#106 = CARTESIAN_POINT ( 'NONE',  ( 39.03450782328887700, -13.32569247416206100, 4.239251315001340000 ) ) ;
#107 = CARTESIAN_POINT ( 'NONE',  ( -24.55364899485847700, -38.54060450110140600, 8.431009310515179300 ) ) ;
#108 = CLOSED_SHELL ( 'NONE', ( #121, #164, #123, #201, #215 ) ) ;
#109 = DIRECTION ( 'NONE',  ( -0.0000000000000000000, -0.0000000000000000000, -1.000000000000000000 ) ) ;
#110 = CARTESIAN_POINT ( 'NONE',  ( 0.0000000000000000000, 13.32569247416210700, -2.217664718257240400 ) ) ;
#111 = CARTESIAN_POINT ( 'NONE',  ( 1.508603478434897400E-014, 38.09999999999998000, 6.264069613986852600 ) ) ;
#112 = FACE_OUTER_BOUND ( 'NONE', #146, .T. ) ;
#113 = DIRECTION ( 'NONE',  ( -0.0000000000000000000, -0.0000000000000000000, -1.000000000000000000 ) ) ;
#114 = CARTESIAN_POINT ( 'NONE',  ( -12.35967541501049500, -38.54060450110139900, 6.413936010313947600 ) ) ;
#115 = DIRECTION ( 'NONE',  ( 0.0000000000000000000, 0.0000000000000000000, 1.000000000000000000 ) ) ;
#116 = DATE_AND_TIME ( #84, #173 ) ;
#117 = ORIENTED_EDGE ( 'NONE', *, *, #197, .T. ) ;
#118 = DIRECTION ( 'NONE',  ( 1.000000000000000000, 0.0000000000000000000, 0.0000000000000000000 ) ) ;
#119 = EDGE_CURVE ( 'NONE', #85, #22, #191, .T. ) ;
#120 = APPROVAL_DATE_TIME ( #116, #122 ) ;
#121 = ADVANCED_FACE ( 'NONE', ( #40 ), #28, .T. ) ;
#122 = APPROVAL ( #156, 'UNSPECIFIED' ) ;
#123 = ADVANCED_FACE ( 'NONE', ( #222 ), #67, .T. ) ;
#124 = PRODUCT_DEFINITION_SHAPE ( 'NONE', 'NONE',  #70 ) ;
#125 = ORGANIZATION ( 'UNSPECIFIED', 'UNSPECIFIED', '' ) ;
#126 = VECTOR ( 'NONE', #209, 1000.000000000000000 ) ;
#127 = PERSON_AND_ORGANIZATION ( #55, #125 ) ;
#128 = EDGE_CURVE ( 'NONE', #22, #203, #233, .T. ) ;
#129 = CARTESIAN_POINT ( 'NONE',  ( 38.09999999999999400, -1.776356839400250100E-015, 6.264069613986860600 ) ) ;
#130 = CARTESIAN_POINT ( 'NONE',  ( 1.498380372995276100E-014, 38.54060450110144100, 6.413936010313952900 ) ) ;
#131 = COORDINATED_UNIVERSAL_TIME_OFFSET ( 2, 0, .AHEAD. ) ;
#132 = CARTESIAN_POINT ( 'NONE',  ( 12.35967541501050500, 38.54060450110144100, 6.413936010313952000 ) ) ;
#133 = EDGE_CURVE ( 'NONE', #85, #151, #90, .T. ) ;
#134 = CARTESIAN_POINT ( 'NONE',  ( -9.325873406851310200E-015, -1.776356839400250100E-015, 6.264069613986860600 ) ) ;
#135 = APPROVAL_DATE_TIME ( #214, #88 ) ;
#136 = CARTESIAN_POINT ( 'NONE',  ( -9.325873406851310200E-015, -1.776356839400250100E-015, 6.264069613986860600 ) ) ;
#137 = CARTESIAN_POINT ( 'NONE',  ( 0.0000000000000000000, 0.0000000000000000000, 0.0000000000000000000 ) ) ;
#138 = CARTESIAN_POINT ( 'NONE',  ( -24.55364899485850200, 38.54060450110143400, 8.431009310515163300 ) ) ;
#139 = DATE_AND_TIME ( #142, #216 ) ;
#140 = ORIENTED_EDGE ( 'NONE', *, *, #89, .F. ) ;
#141 = PERSON_AND_ORGANIZATION_ROLE ( 'design_supplier' ) ;
#142 = CALENDAR_DATE ( 2018, 13, 12 ) ;
#143 = PERSON_AND_ORGANIZATION_ROLE ( 'classification_officer' ) ;
#144 = PERSON_AND_ORGANIZATION_ROLE ( 'creator' ) ;
#145 = PERSON_AND_ORGANIZATION ( #55, #125 ) ;
#146 = EDGE_LOOP ( 'NONE', ( #148, #97, #7, #95, #100 ) ) ;
#147 = AXIS2_PLACEMENT_3D ( 'NONE', #72, #150, #3 ) ;
#148 = ORIENTED_EDGE ( 'NONE', *, *, #181, .F. ) ;
#149 = CARTESIAN_POINT ( 'NONE',  ( 12.35967541501051800, -38.54060450110139900, 6.413936010313966200 ) ) ;
#150 = DIRECTION ( 'NONE',  ( -0.0000000000000000000, -0.0000000000000000000, -1.000000000000000000 ) ) ;
#151 = VERTEX_POINT ( 'NONE', #79 ) ;
#152 = CARTESIAN_POINT ( 'NONE',  ( 13.30725080344296700, -13.32569247416206400, -2.217664718257205300 ) ) ;
#153 = CARTESIAN_POINT ( 'NONE',  ( -36.25496008204152100, 38.54060450110142700, 12.41107152176047800 ) ) ;
#154 = CARTESIAN_POINT ( 'NONE',  ( -13.30725080344295500, -13.32569247416207300, -2.217664718257224000 ) ) ;
#155 = LOCAL_TIME ( 17, 13, 12.00000000000000000, #73 ) ;
#156 = APPROVAL_STATUS ( 'not_yet_approved' ) ;
#157 = ORIENTED_EDGE ( 'NONE', *, *, #119, .T. ) ;
#158 = PERSON_AND_ORGANIZATION_ROLE ( 'design_owner' ) ;
#159 = APPROVAL_STATUS ( 'not_yet_approved' ) ;
#160 = CYLINDRICAL_SURFACE ( 'NONE', #196, 38.10000000000000100 ) ;
#161 = AXIS2_PLACEMENT_3D ( 'NONE', #137, #80, #118 ) ;
#162 = EDGE_CURVE ( 'NONE', #22, #206, #166, .T. ) ;
#163 = ORIENTED_EDGE ( 'NONE', *, *, #128, .T. ) ;
#164 = ADVANCED_FACE ( 'NONE', ( #112 ), #160, .T. ) ;
#165 = UNCERTAINTY_MEASURE_WITH_UNIT (LENGTH_MEASURE( 1.000000000000000100E-005 ), #91, 'distance_accuracy_value', 'NONE');
#166 = CIRCLE ( 'NONE', #204, 38.10000000000000100 ) ;
#167 = CARTESIAN_POINT ( 'NONE',  ( 3.369329100512883900E-014, -38.09999999999995900, 6.264069613986852600 ) ) ;
#168 = CARTESIAN_POINT ( 'NONE',  ( 3.380624212511645500E-014, -38.54060450110140600, 6.413936010313967100 ) ) ;
#169 = CARTESIAN_POINT ( 'NONE',  ( 13.30725080344296000, 13.32569247416211100, -2.217664718257219600 ) ) ;
#170 = AXIS2_PLACEMENT_3D ( 'NONE', #87, #109, #50 ) ;
#171 = PRODUCT ( '110-1717E UVFS pl-cx 76.2 F250', '110-1717E UVFS pl-cx 76.2 F250', '', ( #98 ) ) ;
#172 = DIRECTION ( 'NONE',  ( 0.0000000000000000000, 0.0000000000000000000, 1.000000000000000000 ) ) ;
#173 = LOCAL_TIME ( 17, 13, 12.00000000000000000, #184 ) ;
#174 = CARTESIAN_POINT ( 'NONE',  ( -13.30725080344296400, 13.32569247416210200, -2.217664718257237800 ) ) ;
#175 = CARTESIAN_POINT ( 'NONE',  ( 0.0000000000000000000, 38.54060450110144100, 6.413936010313929800 ) ) ;
#176 = CARTESIAN_POINT ( 'NONE',  ( -38.10000000000000900, 2.889547465351166000E-015, 6.264069613986860600 ) ) ;
#177 = CC_DESIGN_APPROVAL ( #202, ( #70 ) ) ;
#178 = APPROVAL_DATE_TIME ( #81, #202 ) ;
#179 = CIRCLE ( 'NONE', #33, 38.10000000000000100 ) ;
#180 = SECURITY_CLASSIFICATION_LEVEL ( 'unclassified' ) ;
#181 = EDGE_CURVE ( 'NONE', #206, #203, #179, .T. ) ;
#182 = DATE_TIME_ROLE ( 'classification_date' ) ;
#183 = APPLICATION_PROTOCOL_DEFINITION ( 'international standard', 'config_control_design', 1994, #49 ) ;
#184 = COORDINATED_UNIVERSAL_TIME_OFFSET ( 2, 0, .AHEAD. ) ;
#185 = EDGE_CURVE ( 'NONE', #206, #18, #20, .T. ) ;
#186 = AXIS2_PLACEMENT_3D ( 'NONE', #78, #56, #229 ) ;
#187 = CIRCLE ( 'NONE', #195, 38.10000000000000100 ) ;
#188 = COORDINATED_UNIVERSAL_TIME_OFFSET ( 2, 0, .AHEAD. ) ;
#189 = PERSON_AND_ORGANIZATION ( #55, #125 ) ;
#190 = PRODUCT_DEFINITION_FORMATION_WITH_SPECIFIED_SOURCE ( 'ANY', '', #171, .NOT_KNOWN. ) ;
#191 = CIRCLE ( 'NONE', #170, 38.10000000000000100 ) ;
#192 = CARTESIAN_POINT ( 'NONE',  ( 38.09999999999999400, -1.776356839400250100E-015, 6.264069613986860600 ) ) ;
#193 = CIRCLE ( 'NONE', #147, 38.10000000000000100 ) ;
#194 = CARTESIAN_POINT ( 'NONE',  ( -9.325873406851310200E-015, -1.776356839400250100E-015, 6.264069613986860600 ) ) ;
#195 = AXIS2_PLACEMENT_3D ( 'NONE', #194, #113, #94 ) ;
#196 = AXIS2_PLACEMENT_3D ( 'NONE', #136, #11, #93 ) ;
#197 = EDGE_CURVE ( 'NONE', #203, #85, #187, .T. ) ;
#198 = DATE_AND_TIME ( #219, #155 ) ;
#199 = EDGE_LOOP ( 'NONE', ( #104, #140 ) ) ;
#200 = VECTOR ( 'NONE', #8, 1000.000000000000000 ) ;
#201 = ADVANCED_FACE ( 'NONE', ( #66 ), #231, .T. ) ;
#202 = APPROVAL ( #159, 'UNSPECIFIED' ) ;
#203 = VERTEX_POINT ( 'NONE', #111 ) ;
#204 = AXIS2_PLACEMENT_3D ( 'NONE', #134, #24, #45 ) ;
#205 = CARTESIAN_POINT ( 'NONE',  ( 24.55364899485846300, -38.54060450110139200, 8.431009310515175800 ) ) ;
#206 = VERTEX_POINT ( 'NONE', #176 ) ;
#207 = CARTESIAN_POINT ( 'NONE',  ( 26.43609596069711600, -13.32569247416206300, -0.04594908710823901500 ) ) ;
#208 = CARTESIAN_POINT ( 'NONE',  ( -26.43609596069715900, 13.32569247416209600, -0.04594908710824856200 ) ) ;
#209 = DIRECTION ( 'NONE',  ( 0.0000000000000000000, 0.0000000000000000000, 1.000000000000000000 ) ) ;
#210 = CALENDAR_DATE ( 2018, 13, 12 ) ;
#211 = ORIENTED_EDGE ( 'NONE', *, *, #119, .F. ) ;
#212 = PERSON_AND_ORGANIZATION ( #55, #125 ) ;
#213 = ORIENTED_EDGE ( 'NONE', *, *, #181, .T. ) ;
#214 = DATE_AND_TIME ( #235, #4 ) ;
#215 = ADVANCED_FACE ( 'NONE', ( #34 ), #48, .T. ) ;
#216 = LOCAL_TIME ( 17, 13, 12.00000000000000000, #65 ) ;
#217 = ORIENTED_EDGE ( 'NONE', *, *, #162, .T. ) ;
#218 = AXIS2_PLACEMENT_3D ( 'NONE', #223, #220, #23 ) ;
#219 = CALENDAR_DATE ( 2018, 13, 12 ) ;
#220 = DIRECTION ( 'NONE',  ( -0.0000000000000000000, -0.0000000000000000000, -1.000000000000000000 ) ) ;
#221 = PERSON_AND_ORGANIZATION ( #55, #125 ) ;
#222 = FACE_OUTER_BOUND ( 'NONE', #61, .T. ) ;
#223 = CARTESIAN_POINT ( 'NONE',  ( -9.325873406851310200E-015, -1.776356839400250100E-015, 9.000000000000001800 ) ) ;
#224 = CARTESIAN_POINT ( 'NONE',  ( 26.43609596069712000, 13.32569247416211200, -0.04594908710825289200 ) ) ;
#225 = CARTESIAN_POINT ( 'NONE',  ( -12.35967541501051200, 38.54060450110144100, 6.413936010313933300 ) ) ;
#226 = CC_DESIGN_PERSON_AND_ORGANIZATION_ASSIGNMENT ( #47, #144, ( #190 ) ) ;
#227 = CARTESIAN_POINT ( 'NONE',  ( -9.325873406851310200E-015, -1.776356839400250100E-015, 6.264069613986860600 ) ) ;
#228 = CARTESIAN_POINT ( 'NONE',  ( -38.10000000000000900, 2.889547465351166000E-015, 6.264069613986860600 ) ) ;
#229 = DIRECTION ( 'NONE',  ( 2.441897141834630300E-016, -1.000000000000000000, -4.664802624475447800E-016 ) ) ;
#230 = CARTESIAN_POINT ( 'NONE',  ( 0.0000000000000000000, 77.92799999999999700, 9.000000000000001800 ) ) ;
#231 = CYLINDRICAL_SURFACE ( 'NONE', #68, 38.10000000000000100 ) ;
#232 = DESIGN_CONTEXT ( 'detailed design', #31, 'design' ) ;
#233 = CIRCLE ( 'NONE', #186, 119.0000000000000000 ) ;
#234 = APPROVAL_STATUS ( 'not_yet_approved' ) ;
#235 = CALENDAR_DATE ( 2018, 13, 12 ) ;
ENDSEC;
END-ISO-10303-21;
