ISO-10303-21;
HEADER;
FILE_DESCRIPTION (( 'STEP AP203' ),
    '1' );
FILE_NAME ('110-1567E UVFS pl-cx 50.8 F5000.STEP',
    '2018-12-13T15:08:06',
    ( '' ),
    ( '' ),
    'SwSTEP 2.0',
    'SolidWorks 2017',
    '' );
FILE_SCHEMA (( 'CONFIG_CONTROL_DESIGN' ));
ENDSEC;

DATA;
#1 = APPROVAL ( #94, 'UNSPECIFIED' ) ;
#2 = CARTESIAN_POINT ( 'NONE',  ( 1.012298975589907100E-013, -25.70478821838075900, 0.1388141610765281100 ) ) ;
#3 = FACE_OUTER_BOUND ( 'NONE', #200, .T. ) ;
#4 = AXIS2_PLACEMENT_3D ( 'NONE', #124, #225, #223 ) ;
#5 = CARTESIAN_POINT ( 'NONE',  ( -8.517172476264459400, 25.70478821838084100, 0.1388141610763098900 ) ) ;
#6 = CARTESIAN_POINT ( 'NONE',  ( -4.926614671774131100E-013, 8.568595916618230400, -0.04627318628970388700 ) ) ;
#7 = LOCAL_TIME ( 17, 8, 6.000000000000000000, #61 ) ;
#8 =( GEOMETRIC_REPRESENTATION_CONTEXT ( 3 ) GLOBAL_UNCERTAINTY_ASSIGNED_CONTEXT ( ( #201 ) ) GLOBAL_UNIT_ASSIGNED_CONTEXT ( ( #214, #39, #14 ) ) REPRESENTATION_CONTEXT ( 'NONE', 'WORKASPACE' ) );
#9 = VERTEX_POINT ( 'NONE', #118 ) ;
#10 = CC_DESIGN_SECURITY_CLASSIFICATION ( #235, ( #103 ) ) ;
#11 = CARTESIAN_POINT ( 'NONE',  ( 8.126288848656498500E-014, 25.40000000001235100, 0.1355416746945506400 ) ) ;
#12 = CIRCLE ( 'NONE', #209, 25.39999999999999900 ) ;
#13 = DATE_TIME_ROLE ( 'creation_date' ) ;
#14 =( NAMED_UNIT ( * ) SI_UNIT ( $, .STERADIAN. ) SOLID_ANGLE_UNIT ( ) );
#15 = AXIS2_PLACEMENT_3D ( 'NONE', #153, #196, #170 ) ;
#16 = VERTEX_POINT ( 'NONE', #63 ) ;
#17 = APPROVAL_STATUS ( 'not_yet_approved' ) ;
#18 = FACE_OUTER_BOUND ( 'NONE', #114, .T. ) ;
#19 = ADVANCED_FACE ( 'NONE', ( #18 ), #213, .T. ) ;
#20 = AXIS2_PLACEMENT_3D ( 'NONE', #96, #151, #175 ) ;
#21 = DIRECTION ( 'NONE',  ( 0.0000000000000000000, 0.0000000000000000000, 1.000000000000000000 ) ) ;
#22 = CARTESIAN_POINT ( 'NONE',  ( 25.55289096438545800, -8.568595916618132700, 0.09090251931925537300 ) ) ;
#23 = SHAPE_DEFINITION_REPRESENTATION ( #111, #125 ) ;
#24 = CARTESIAN_POINT ( 'NONE',  ( 25.55090381108535500, 25.70478821838085900, 0.2759791990407919900 ) ) ;
#25 = CARTESIAN_POINT ( 'NONE',  ( 25.39999999999999900, 4.884981308350691100E-015, 0.1355416746944510000 ) ) ;
#26 = ORIENTED_EDGE ( 'NONE', *, *, #199, .T. ) ;
#27 = PRODUCT_RELATED_PRODUCT_CATEGORY ( 'detail', '', ( #159 ) ) ;
#28 = CARTESIAN_POINT ( 'NONE',  ( 25.39999999999999900, 4.884981308350691100E-015, 0.1355416746944510000 ) ) ;
#29 = COORDINATED_UNIVERSAL_TIME_OFFSET ( 2, 0, .AHEAD. ) ;
#30 = EDGE_CURVE ( 'NONE', #116, #220, #169, .T. ) ;
#31 = APPROVAL ( #17, 'UNSPECIFIED' ) ;
#32 = FACE_OUTER_BOUND ( 'NONE', #168, .T. ) ;
#33 = PERSON_AND_ORGANIZATION_ROLE ( 'design_supplier' ) ;
#34 = APPLICATION_PROTOCOL_DEFINITION ( 'international standard', 'config_control_design', 1994, #113 ) ;
#35 = AXIS2_PLACEMENT_3D ( 'NONE', #226, #69, #86 ) ;
#36 = CARTESIAN_POINT ( 'NONE',  ( 9.992007221626412800E-016, 4.884981308350691100E-015, 5.000000000000000000 ) ) ;
#37 = CALENDAR_DATE ( 2018, 13, 12 ) ;
#38 = PERSON_AND_ORGANIZATION_ROLE ( 'design_owner' ) ;
#39 =( NAMED_UNIT ( * ) PLANE_ANGLE_UNIT ( ) SI_UNIT ( $, .RADIAN. ) );
#40 = VECTOR ( 'NONE', #21, 1000.000000000000000 ) ;
#41 = LOCAL_TIME ( 17, 8, 6.000000000000000000, #128 ) ;
#42 = CC_DESIGN_APPROVAL ( #31, ( #235 ) ) ;
#43 = CARTESIAN_POINT ( 'NONE',  ( 8.517172476263901600, -25.70478821838075200, 0.1388141610765276100 ) ) ;
#44 = ORIENTED_EDGE ( 'NONE', *, *, #199, .F. ) ;
#45 = APPROVAL_DATE_TIME ( #81, #31 ) ;
#46 = CARTESIAN_POINT ( 'NONE',  ( -25.55090381108622200, -25.70478821838077000, 0.2759791990407656200 ) ) ;
#47 = DIRECTION ( 'NONE',  ( -0.0000000000000000000, -0.0000000000000000000, -1.000000000000000000 ) ) ;
#48 = CARTESIAN_POINT ( 'NONE',  ( -8.517834876605302700, -8.568595916618146900, -0.04627318628970079900 ) ) ;
#49 = PERSON_AND_ORGANIZATION ( #57, #210 ) ;
#50 = EDGE_CURVE ( 'NONE', #101, #9, #189, .T. ) ;
#51 = CARTESIAN_POINT ( 'NONE',  ( -8.517172476264438100, -25.70478821838075900, 0.1388141610763098900 ) ) ;
#52 = ORIENTED_EDGE ( 'NONE', *, *, #30, .T. ) ;
#53 = CC_DESIGN_DATE_AND_TIME_ASSIGNMENT ( #134, #211, ( #235 ) ) ;
#54 = PERSON_AND_ORGANIZATION ( #57, #210 ) ;
#55 = APPLICATION_PROTOCOL_DEFINITION ( 'international standard', 'config_control_design', 1994, #173 ) ;
#56 = CARTESIAN_POINT ( 'NONE',  ( 9.992007221626412800E-016, 4.884981308350691100E-015, 0.1355416746944510000 ) ) ;
#57 = PERSON ( 'UNSPECIFIED', 'UNSPECIFIED', 'UNSPECIFIED', ('UNSPECIFIED'), ('UNSPECIFIED'), ('UNSPECIFIED') ) ;
#58 = CARTESIAN_POINT ( 'NONE',  ( 9.992007221626412800E-016, 4.884981308350691100E-015, 0.1355416746944510000 ) ) ;
#59 = FACE_OUTER_BOUND ( 'NONE', #164, .T. ) ;
#60 = EDGE_CURVE ( 'NONE', #177, #101, #198, .T. ) ;
#61 = COORDINATED_UNIVERSAL_TIME_OFFSET ( 2, 0, .AHEAD. ) ;
#62 = PRODUCT_DEFINITION ( 'UNKNOWN', '', #103, #92 ) ;
#63 = CARTESIAN_POINT ( 'NONE',  ( 1.011106284554064700E-013, -25.40000000001234400, 0.1355416746945506400 ) ) ;
#64 = ORIENTED_EDGE ( 'NONE', *, *, #95, .T. ) ;
#65 = CARTESIAN_POINT ( 'NONE',  ( 25.55289096438545100, 8.568595916618241000, 0.09090251931925474900 ) ) ;
#66 = CARTESIAN_POINT ( 'NONE',  ( -17.03422222827982700, -25.70478821838076300, 0.1845362796056390100 ) ) ;
#67 = CYLINDRICAL_SURFACE ( 'NONE', #107, 25.39999999999999900 ) ;
#68 = CARTESIAN_POINT ( 'NONE',  ( -4.787836793695987600E-013, -25.70478821838075900, 0.1388141610763073400 ) ) ;
#69 = DIRECTION ( 'NONE',  ( -0.0000000000000000000, -0.0000000000000000000, -1.000000000000000000 ) ) ;
#70 = APPROVAL_PERSON_ORGANIZATION ( #49, #127, #100 ) ;
#71 = EDGE_CURVE ( 'NONE', #16, #116, #110, .T. ) ;
#72 = MECHANICAL_CONTEXT ( 'NONE', #113, 'mechanical' ) ;
#73 = EDGE_LOOP ( 'NONE', ( #217, #229, #26 ) ) ;
#74 = DIRECTION ( 'NONE',  ( 1.000000000000000000, -8.881784197001252300E-016, 0.0000000000000000000 ) ) ;
#75 = CC_DESIGN_PERSON_AND_ORGANIZATION_ASSIGNMENT ( #232, #33, ( #103 ) ) ;
#76 = PERSON_AND_ORGANIZATION ( #57, #210 ) ;
#77 = ORIENTED_EDGE ( 'NONE', *, *, #30, .F. ) ;
#78 = DIRECTION ( 'NONE',  ( 1.000000000000000000, 0.0000000000000000000, 0.0000000000000000000 ) ) ;
#79 = ADVANCED_FACE ( 'NONE', ( #184 ), #115, .T. ) ;
#80 = ADVANCED_FACE ( 'NONE', ( #32 ), #85, .T. ) ;
#81 = DATE_AND_TIME ( #178, #215 ) ;
#82 = PERSON_AND_ORGANIZATION ( #57, #210 ) ;
#83 = ORIENTED_EDGE ( 'NONE', *, *, #149, .T. ) ;
#84 = DIRECTION ( 'NONE',  ( 0.0000000000000000000, 0.0000000000000000000, 1.000000000000000000 ) ) ;
#85 = CYLINDRICAL_SURFACE ( 'NONE', #154, 25.39999999999999900 ) ;
#86 = DIRECTION ( 'NONE',  ( 1.000000000000000000, 1.776356839400250500E-015, 0.0000000000000000000 ) ) ;
#87 = CARTESIAN_POINT ( 'NONE',  ( -25.55090381108624300, 25.70478821838083800, 0.2759791990407656200 ) ) ;
#88 = CARTESIAN_POINT ( 'NONE',  ( -4.996003610813204400E-013, 25.70478821838084800, 0.1388141610763073400 ) ) ;
#89 = DIRECTION ( 'NONE',  ( 1.000000000000000000, 0.0000000000000000000, 0.0000000000000000000 ) ) ;
#90 = DATE_AND_TIME ( #37, #41 ) ;
#91 = ORIENTED_EDGE ( 'NONE', *, *, #71, .F. ) ;
#92 = DESIGN_CONTEXT ( 'detailed design', #173, 'design' ) ;
#93 = ORIENTED_EDGE ( 'NONE', *, *, #144, .T. ) ;
#94 = APPROVAL_STATUS ( 'not_yet_approved' ) ;
#95 = EDGE_CURVE ( 'NONE', #16, #177, #181, .T. ) ;
#96 = CARTESIAN_POINT ( 'NONE',  ( 0.0000000000000000000, 0.0000000000000000000, 0.0000000000000000000 ) ) ;
#97 = PERSON_AND_ORGANIZATION_ROLE ( 'creator' ) ;
#98 = CALENDAR_DATE ( 2018, 13, 12 ) ;
#99 = DIRECTION ( 'NONE',  ( -0.0000000000000000000, -0.0000000000000000000, -1.000000000000000000 ) ) ;
#100 = APPROVAL_ROLE ( '' ) ;
#101 = VERTEX_POINT ( 'NONE', #28 ) ;
#102 = APPROVAL_DATE_TIME ( #90, #1 ) ;
#103 = PRODUCT_DEFINITION_FORMATION_WITH_SPECIFIED_SOURCE ( 'ANY', '', #159, .NOT_KNOWN. ) ;
#104 = CARTESIAN_POINT ( 'NONE',  ( 17.03554701941629200, 8.568595916618237500, -0.0005475118446898893100 ) ) ;
#105 = CARTESIAN_POINT ( 'NONE',  ( 8.517834876604750200, -8.568595916618139800, -0.04627318628948299400 ) ) ;
#106 = CARTESIAN_POINT ( 'NONE',  ( -4.857225732735059900E-013, -8.568595916618143300, -0.04627318628970334600 ) ) ;
#107 = AXIS2_PLACEMENT_3D ( 'NONE', #56, #112, #172 ) ;
#108 = LOCAL_TIME ( 17, 8, 6.000000000000000000, #183 ) ;
#109 = CARTESIAN_POINT ( 'NONE',  ( 9.992007221626412800E-016, 4.884981308350691100E-015, 0.1355416746944510000 ) ) ;
#110 = CIRCLE ( 'NONE', #194, 25.39999999999999900 ) ;
#111 = PRODUCT_DEFINITION_SHAPE ( 'NONE', 'NONE',  #62 ) ;
#112 = DIRECTION ( 'NONE',  ( 0.0000000000000000000, 0.0000000000000000000, 1.000000000000000000 ) ) ;
#113 = APPLICATION_CONTEXT ( 'configuration controlled 3d designs of mechanical parts and assemblies' ) ;
#114 = EDGE_LOOP ( 'NONE', ( #135, #64, #123 ) ) ;
#115 =( BOUNDED_SURFACE ( )  B_SPLINE_SURFACE ( 3, 3, ( 
 ( #46, #66, #51, #68 ),
 ( #165, #192, #48, #106 ),
 ( #145, #166, #208, #6 ),
 ( #87, #122, #5, #88 ) ),
 .UNSPECIFIED., .F., .F., .F. ) 
 B_SPLINE_SURFACE_WITH_KNOTS ( ( 4, 4 ),
 ( 4, 4 ),
 ( 0.0000000000000000000, 1.000000000000000000 ),
 ( 0.0000000000000000000, 1.000000000000000000 ),
 .UNSPECIFIED. ) 
 GEOMETRIC_REPRESENTATION_ITEM ( )  RATIONAL_B_SPLINE_SURFACE ( (
 ( 1.000000000000000000, 0.9999903939757078800, 0.9999903939757078800, 1.000000000000000000),
 ( 0.9999611164814912200, 0.9999515108307151000, 0.9999515108307151000, 0.9999611164814912200),
 ( 0.9999611164814912200, 0.9999515108307151000, 0.9999515108307151000, 0.9999611164814912200),
 ( 1.000000000000000000, 0.9999903939757078800, 0.9999903939757078800, 1.000000000000000000) ) ) 
 REPRESENTATION_ITEM ( '' )  SURFACE ( )  );
#116 = VERTEX_POINT ( 'NONE', #163 ) ;
#117 = MANIFOLD_SOLID_BREP ( 'Imported1', #179 ) ;
#118 = CARTESIAN_POINT ( 'NONE',  ( 25.39999999999999900, 4.884981308350691100E-015, 5.000000000000000000 ) ) ;
#119 = PERSON_AND_ORGANIZATION ( #57, #210 ) ;
#120 = CARTESIAN_POINT ( 'NONE',  ( 8.114399391677361800E-014, 25.70478821838084800, 0.1388141610765281100 ) ) ;
#121 = CARTESIAN_POINT ( 'NONE',  ( 17.03554701941629900, -8.568595916618138000, -0.0005475118446892660000 ) ) ;
#122 = CARTESIAN_POINT ( 'NONE',  ( -17.03422222827984800, 25.70478821838083800, 0.1845362796056389800 ) ) ;
#123 = ORIENTED_EDGE ( 'NONE', *, *, #60, .T. ) ;
#124 = CARTESIAN_POINT ( 'NONE',  ( 2.273736754432320100E-013, 0.0000000000000000000, 2380.000000000000000 ) ) ;
#125 = ADVANCED_BREP_SHAPE_REPRESENTATION ( '110-1567E UVFS pl-cx 50.8 F5000', ( #117, #20 ), #8 ) ;
#126 = DIRECTION ( 'NONE',  ( 0.0000000000000000000, 0.0000000000000000000, 1.000000000000000000 ) ) ;
#127 = APPROVAL ( #197, 'UNSPECIFIED' ) ;
#128 = COORDINATED_UNIVERSAL_TIME_OFFSET ( 2, 0, .AHEAD. ) ;
#129 = VECTOR ( 'NONE', #84, 1000.000000000000000 ) ;
#130 = CIRCLE ( 'NONE', #161, 25.39999999999999900 ) ;
#131 = CARTESIAN_POINT ( 'NONE',  ( -25.39999999999999900, 7.995584178184967200E-015, 5.000000000000000000 ) ) ;
#132 = DIRECTION ( 'NONE',  ( 1.000000000000000000, 0.0000000000000000000, 0.0000000000000000000 ) ) ;
#133 = APPROVAL_ROLE ( '' ) ;
#134 = DATE_AND_TIME ( #138, #147 ) ;
#135 = ORIENTED_EDGE ( 'NONE', *, *, #182, .T. ) ;
#136 = ADVANCED_FACE ( 'NONE', ( #59 ), #67, .T. ) ;
#137 = CIRCLE ( 'NONE', #219, 25.39999999999999900 ) ;
#138 = CALENDAR_DATE ( 2018, 13, 12 ) ;
#139 = CC_DESIGN_PERSON_AND_ORGANIZATION_ASSIGNMENT ( #82, #150, ( #62 ) ) ;
#140 = CARTESIAN_POINT ( 'NONE',  ( 25.55090381108537300, -25.70478821838074900, 0.2759791990407919900 ) ) ;
#141 = CARTESIAN_POINT ( 'NONE',  ( 17.03422222827912000, 25.70478821838084800, 0.1845362796056717600 ) ) ;
#142 = ORIENTED_EDGE ( 'NONE', *, *, #60, .F. ) ;
#143 = CARTESIAN_POINT ( 'NONE',  ( 8.517172476263882100, 25.70478821838084800, 0.1388141610765276100 ) ) ;
#144 = EDGE_CURVE ( 'NONE', #220, #9, #12, .T. ) ;
#145 = CARTESIAN_POINT ( 'NONE',  ( -25.55289096438632500, 8.568595916618219700, 0.09090251931922839500 ) ) ;
#146 = CARTESIAN_POINT ( 'NONE',  ( 9.992007221626412800E-016, 4.884981308350691100E-015, 0.1355416746944510000 ) ) ;
#147 = LOCAL_TIME ( 17, 8, 6.000000000000000000, #174 ) ;
#148 = ORIENTED_EDGE ( 'NONE', *, *, #144, .F. ) ;
#149 = EDGE_CURVE ( 'NONE', #9, #220, #130, .T. ) ;
#150 = PERSON_AND_ORGANIZATION_ROLE ( 'creator' ) ;
#151 = DIRECTION ( 'NONE',  ( 0.0000000000000000000, 0.0000000000000000000, 1.000000000000000000 ) ) ;
#152 = DATE_AND_TIME ( #98, #7 ) ;
#153 = CARTESIAN_POINT ( 'NONE',  ( 0.0000000000000000000, 52.02000000000000300, 5.000000000000000000 ) ) ;
#154 = AXIS2_PLACEMENT_3D ( 'NONE', #109, #126, #89 ) ;
#155 = DIRECTION ( 'NONE',  ( -0.0000000000000000000, -0.0000000000000000000, -1.000000000000000000 ) ) ;
#156 = CIRCLE ( 'NONE', #231, 25.39999999999999900 ) ;
#157 = ADVANCED_FACE ( 'NONE', ( #3 ), #230, .T. ) ;
#158 = APPROVAL_PERSON_ORGANIZATION ( #191, #1, #195 ) ;
#159 = PRODUCT ( '110-1567E UVFS pl-cx 50.8 F5000', '110-1567E UVFS pl-cx 50.8 F5000', '', ( #72 ) ) ;
#160 = ORIENTED_EDGE ( 'NONE', *, *, #50, .F. ) ;
#161 = AXIS2_PLACEMENT_3D ( 'NONE', #36, #187, #78 ) ;
#162 = CARTESIAN_POINT ( 'NONE',  ( 8.517834876604744900, 8.568595916618233900, -0.04627318628948361900 ) ) ;
#163 = CARTESIAN_POINT ( 'NONE',  ( -25.39999999999999900, 7.995584178184967200E-015, 0.1355416746944510000 ) ) ;
#164 = EDGE_LOOP ( 'NONE', ( #77, #91, #207, #204, #83 ) ) ;
#165 = CARTESIAN_POINT ( 'NONE',  ( -25.55289096438631800, -8.568595916618154000, 0.09090251931922901900 ) ) ;
#166 = CARTESIAN_POINT ( 'NONE',  ( -17.03554701941700600, 8.568595916618223300, -0.0005475118447226592100 ) ) ;
#167 = CC_DESIGN_PERSON_AND_ORGANIZATION_ASSIGNMENT ( #119, #38, ( #159 ) ) ;
#168 = EDGE_LOOP ( 'NONE', ( #44, #52, #93, #160, #142 ) ) ;
#169 = LINE ( 'NONE', #202, #129 ) ;
#170 = DIRECTION ( 'NONE',  ( 1.000000000000000000, 0.0000000000000000000, -0.0000000000000000000 ) ) ;
#171 = CARTESIAN_POINT ( 'NONE',  ( 9.992007221626412800E-016, 4.884981308350691100E-015, 5.000000000000000000 ) ) ;
#172 = DIRECTION ( 'NONE',  ( 1.000000000000000000, 0.0000000000000000000, 0.0000000000000000000 ) ) ;
#173 = APPLICATION_CONTEXT ( 'configuration controlled 3d designs of mechanical parts and assemblies' ) ;
#174 = COORDINATED_UNIVERSAL_TIME_OFFSET ( 2, 0, .AHEAD. ) ;
#175 = DIRECTION ( 'NONE',  ( 1.000000000000000000, 0.0000000000000000000, 0.0000000000000000000 ) ) ;
#176 = CC_DESIGN_APPROVAL ( #1, ( #62 ) ) ;
#177 = VERTEX_POINT ( 'NONE', #11 ) ;
#178 = CALENDAR_DATE ( 2018, 13, 12 ) ;
#179 = CLOSED_SHELL ( 'NONE', ( #19, #80, #79, #136, #157 ) ) ;
#180 = CARTESIAN_POINT ( 'NONE',  ( 17.03422222827913400, -25.70478821838074900, 0.1845362796056717600 ) ) ;
#181 = CIRCLE ( 'NONE', #4, 2380.000000000000000 ) ;
#182 = EDGE_CURVE ( 'NONE', #101, #16, #137, .T. ) ;
#183 = COORDINATED_UNIVERSAL_TIME_OFFSET ( 2, 0, .AHEAD. ) ;
#184 = FACE_OUTER_BOUND ( 'NONE', #73, .T. ) ;
#185 = CARTESIAN_POINT ( 'NONE',  ( 9.992007221626412800E-016, 4.884981308350691100E-015, 0.1355416746944510000 ) ) ;
#186 = APPROVAL_DATE_TIME ( #190, #127 ) ;
#187 = DIRECTION ( 'NONE',  ( -0.0000000000000000000, -0.0000000000000000000, -1.000000000000000000 ) ) ;
#188 = CC_DESIGN_PERSON_AND_ORGANIZATION_ASSIGNMENT ( #221, #212, ( #235 ) ) ;
#189 = LINE ( 'NONE', #25, #40 ) ;
#190 = DATE_AND_TIME ( #227, #108 ) ;
#191 = PERSON_AND_ORGANIZATION ( #57, #210 ) ;
#192 = CARTESIAN_POINT ( 'NONE',  ( -17.03554701941699900, -8.568595916618150500, -0.0005475118447220360100 ) ) ;
#193 = APPROVAL_PERSON_ORGANIZATION ( #54, #31, #133 ) ;
#194 = AXIS2_PLACEMENT_3D ( 'NONE', #146, #47, #206 ) ;
#195 = APPROVAL_ROLE ( '' ) ;
#196 = DIRECTION ( 'NONE',  ( 0.0000000000000000000, 0.0000000000000000000, 1.000000000000000000 ) ) ;
#197 = APPROVAL_STATUS ( 'not_yet_approved' ) ;
#198 = CIRCLE ( 'NONE', #35, 25.39999999999999900 ) ;
#199 = EDGE_CURVE ( 'NONE', #116, #177, #156, .T. ) ;
#200 = EDGE_LOOP ( 'NONE', ( #224, #148 ) ) ;
#201 = UNCERTAINTY_MEASURE_WITH_UNIT (LENGTH_MEASURE( 1.000000000000000100E-005 ), #214, 'distance_accuracy_value', 'NONE');
#202 = CARTESIAN_POINT ( 'NONE',  ( -25.39999999999999900, 7.995584178184967200E-015, 0.1355416746944510000 ) ) ;
#203 = CARTESIAN_POINT ( 'NONE',  ( 8.782857339818784200E-014, 8.568595916618230400, -0.04627318628948313300 ) ) ;
#204 = ORIENTED_EDGE ( 'NONE', *, *, #50, .T. ) ;
#205 = CC_DESIGN_PERSON_AND_ORGANIZATION_ASSIGNMENT ( #76, #97, ( #103 ) ) ;
#206 = DIRECTION ( 'NONE',  ( 1.000000000000000000, 0.0000000000000000000, 0.0000000000000000000 ) ) ;
#207 = ORIENTED_EDGE ( 'NONE', *, *, #182, .F. ) ;
#208 = CARTESIAN_POINT ( 'NONE',  ( -8.517834876605309800, 8.568595916618226800, -0.04627318628970133300 ) ) ;
#209 = AXIS2_PLACEMENT_3D ( 'NONE', #171, #155, #218 ) ;
#210 = ORGANIZATION ( 'UNSPECIFIED', 'UNSPECIFIED', '' ) ;
#211 = DATE_TIME_ROLE ( 'classification_date' ) ;
#212 = PERSON_AND_ORGANIZATION_ROLE ( 'classification_officer' ) ;
#213 =( BOUNDED_SURFACE ( )  B_SPLINE_SURFACE ( 3, 3, ( 
 ( #2, #43, #180, #140 ),
 ( #222, #105, #121, #22 ),
 ( #203, #162, #104, #65 ),
 ( #120, #143, #141, #24 ) ),
 .UNSPECIFIED., .F., .F., .F. ) 
 B_SPLINE_SURFACE_WITH_KNOTS ( ( 4, 4 ),
 ( 4, 4 ),
 ( 0.0000000000000000000, 1.000000000000000000 ),
 ( 0.0000000000000000000, 1.000000000000000000 ),
 .UNSPECIFIED. ) 
 GEOMETRIC_REPRESENTATION_ITEM ( )  RATIONAL_B_SPLINE_SURFACE ( (
 ( 1.000000000000000000, 0.9999903939757078800, 0.9999903939757078800, 1.000000000000000000),
 ( 0.9999611164814912200, 0.9999515108307151000, 0.9999515108307151000, 0.9999611164814912200),
 ( 0.9999611164814912200, 0.9999515108307151000, 0.9999515108307151000, 0.9999611164814912200),
 ( 1.000000000000000000, 0.9999903939757078800, 0.9999903939757078800, 1.000000000000000000) ) ) 
 REPRESENTATION_ITEM ( '' )  SURFACE ( )  );
#214 =( LENGTH_UNIT ( ) NAMED_UNIT ( * ) SI_UNIT ( .MILLI., .METRE. ) );
#215 = LOCAL_TIME ( 17, 8, 6.000000000000000000, #29 ) ;
#216 = CC_DESIGN_DATE_AND_TIME_ASSIGNMENT ( #152, #13, ( #62 ) ) ;
#217 = ORIENTED_EDGE ( 'NONE', *, *, #95, .F. ) ;
#218 = DIRECTION ( 'NONE',  ( 1.000000000000000000, 0.0000000000000000000, 0.0000000000000000000 ) ) ;
#219 = AXIS2_PLACEMENT_3D ( 'NONE', #185, #99, #132 ) ;
#220 = VERTEX_POINT ( 'NONE', #131 ) ;
#221 = PERSON_AND_ORGANIZATION ( #57, #210 ) ;
#222 = CARTESIAN_POINT ( 'NONE',  ( 9.452413495925210700E-014, -8.568595916618143300, -0.04627318628948250800 ) ) ;
#223 = DIRECTION ( 'NONE',  ( 3.907035426935399000E-016, -1.000000000000000000, -7.463684199160716300E-016 ) ) ;
#224 = ORIENTED_EDGE ( 'NONE', *, *, #149, .F. ) ;
#225 = DIRECTION ( 'NONE',  ( 1.000000000000000000, 3.907035426935399900E-016, -5.722465264600830200E-017 ) ) ;
#226 = CARTESIAN_POINT ( 'NONE',  ( 9.992007221626412800E-016, 4.884981308350691100E-015, 0.1355416746944510000 ) ) ;
#227 = CALENDAR_DATE ( 2018, 13, 12 ) ;
#228 = CC_DESIGN_APPROVAL ( #127, ( #103 ) ) ;
#229 = ORIENTED_EDGE ( 'NONE', *, *, #71, .T. ) ;
#230 = PLANE ( 'NONE',  #15 ) ;
#231 = AXIS2_PLACEMENT_3D ( 'NONE', #58, #233, #74 ) ;
#232 = PERSON_AND_ORGANIZATION ( #57, #210 ) ;
#233 = DIRECTION ( 'NONE',  ( -0.0000000000000000000, -0.0000000000000000000, -1.000000000000000000 ) ) ;
#234 = SECURITY_CLASSIFICATION_LEVEL ( 'unclassified' ) ;
#235 = SECURITY_CLASSIFICATION ( '', '', #234 ) ;
ENDSEC;
END-ISO-10303-21;
