ISO-10303-21;
HEADER;
FILE_DESCRIPTION (( 'STEP AP203' ),
    '1' );
FILE_NAME ('110-1566E UVFS pl-cx 50.8 F4000.STEP',
    '2018-12-13T15:08:17',
    ( '' ),
    ( '' ),
    'SwSTEP 2.0',
    'SolidWorks 2017',
    '' );
FILE_SCHEMA (( 'CONFIG_CONTROL_DESIGN' ));
ENDSEC;

DATA;
#1 = CYLINDRICAL_SURFACE ( 'NONE', #70, 25.39999999999999900 ) ;
#2 = CARTESIAN_POINT ( 'NONE',  ( 8.518042017486999700, 8.568781139076559600, -0.05784366721062073100 ) ) ;
#3 = PERSON_AND_ORGANIZATION_ROLE ( 'creator' ) ;
#4 = APPROVAL_PERSON_ORGANIZATION ( #33, #170, #190 ) ;
#5 = COORDINATED_UNIVERSAL_TIME_OFFSET ( 2, 0, .AHEAD. ) ;
#6 = ORIENTED_EDGE ( 'NONE', *, *, #22, .T. ) ;
#7 = EDGE_CURVE ( 'NONE', #10, #65, #199, .T. ) ;
#8 = LOCAL_TIME ( 17, 8, 17.00000000000000000, #126 ) ;
#9 = LOCAL_TIME ( 17, 8, 17.00000000000000000, #132 ) ;
#10 = VERTEX_POINT ( 'NONE', #114 ) ;
#11 = AXIS2_PLACEMENT_3D ( 'NONE', #62, #25, #232 ) ;
#12 = ORIENTED_EDGE ( 'NONE', *, *, #37, .T. ) ;
#13 = CARTESIAN_POINT ( 'NONE',  ( -7.632783294297951200E-014, -25.70478159072434100, 0.1735204585025144100 ) ) ;
#14 = APPROVAL_ROLE ( '' ) ;
#15 = APPROVAL_STATUS ( 'not_yet_approved' ) ;
#16 = CALENDAR_DATE ( 2018, 13, 12 ) ;
#17 = CIRCLE ( 'NONE', #165, 25.39999999999999900 ) ;
#18 = CARTESIAN_POINT ( 'NONE',  ( 3.803793769979049100E-013, 25.70478159072487000, 0.1735204585022742700 ) ) ;
#19 = MECHANICAL_CONTEXT ( 'NONE', #129, 'mechanical' ) ;
#20 = AXIS2_PLACEMENT_3D ( 'NONE', #115, #98, #27 ) ;
#21 = ORIENTED_EDGE ( 'NONE', *, *, #35, .T. ) ;
#22 = EDGE_CURVE ( 'NONE', #92, #227, #127, .T. ) ;
#23 = CARTESIAN_POINT ( 'NONE',  ( 9.992007221626412800E-016, 4.884981308350691100E-015, 0.1694298073685980000 ) ) ;
#24 = DATE_AND_TIME ( #85, #179 ) ;
#25 = DIRECTION ( 'NONE',  ( 1.000000000000000000, 2.441897141834629800E-016, -3.576540790375509800E-017 ) ) ;
#26 = FACE_OUTER_BOUND ( 'NONE', #217, .T. ) ;
#27 = DIRECTION ( 'NONE',  ( 1.000000000000000000, 0.0000000000000000000, -0.0000000000000000000 ) ) ;
#28 = CARTESIAN_POINT ( 'NONE',  ( 17.03589225492136100, -8.568781139076021300, -0.0006847282164368270200 ) ) ;
#29 = LINE ( 'NONE', #133, #40 ) ;
#30 = PRODUCT_DEFINITION_FORMATION_WITH_SPECIFIED_SOURCE ( 'ANY', '', #68, .NOT_KNOWN. ) ;
#31 = PERSON_AND_ORGANIZATION_ROLE ( 'classification_officer' ) ;
#32 = AXIS2_PLACEMENT_3D ( 'NONE', #74, #198, #51 ) ;
#33 = PERSON_AND_ORGANIZATION ( #178, #187 ) ;
#34 = CARTESIAN_POINT ( 'NONE',  ( 25.55316716083463300, -8.568781139076021300, 0.1136305759534335500 ) ) ;
#35 = EDGE_CURVE ( 'NONE', #203, #67, #17, .T. ) ;
#36 = DIRECTION ( 'NONE',  ( 0.0000000000000000000, 0.0000000000000000000, 1.000000000000000000 ) ) ;
#37 = EDGE_CURVE ( 'NONE', #203, #92, #172, .T. ) ;
#38 = CARTESIAN_POINT ( 'NONE',  ( 25.39999999999999900, 4.884981308350691100E-015, 6.000000000000000000 ) ) ;
#39 = LOCAL_TIME ( 17, 8, 17.00000000000000000, #5 ) ;
#40 = VECTOR ( 'NONE', #205, 1000.000000000000000 ) ;
#41 = CC_DESIGN_APPROVAL ( #56, ( #30 ) ) ;
#42 = CARTESIAN_POINT ( 'NONE',  ( 9.992007221626412800E-016, 4.884981308350691100E-015, 0.1694298073685980000 ) ) ;
#43 = ADVANCED_BREP_SHAPE_REPRESENTATION ( '110-1566E UVFS pl-cx 50.8 F4000', ( #234, #192 ), #124 ) ;
#44 = PLANE ( 'NONE',  #20 ) ;
#45 = ORIENTED_EDGE ( 'NONE', *, *, #54, .F. ) ;
#46 = AXIS2_PLACEMENT_3D ( 'NONE', #42, #188, #80 ) ;
#47 = ORIENTED_EDGE ( 'NONE', *, *, #22, .F. ) ;
#48 = AXIS2_PLACEMENT_3D ( 'NONE', #166, #224, #94 ) ;
#49 = DATE_AND_TIME ( #16, #39 ) ;
#50 = CARTESIAN_POINT ( 'NONE',  ( -9.367506770274758300E-014, 25.70478159072487000, 0.1735204585022924200 ) ) ;
#51 = DIRECTION ( 'NONE',  ( 1.000000000000000000, 0.0000000000000000000, 0.0000000000000000000 ) ) ;
#52 =( LENGTH_UNIT ( ) NAMED_UNIT ( * ) SI_UNIT ( .MILLI., .METRE. ) );
#53 = APPLICATION_PROTOCOL_DEFINITION ( 'international standard', 'config_control_design', 1994, #129 ) ;
#54 = EDGE_CURVE ( 'NONE', #10, #227, #29, .T. ) ;
#55 = DIRECTION ( 'NONE',  ( 0.0000000000000000000, 0.0000000000000000000, 1.000000000000000000 ) ) ;
#56 = APPROVAL ( #15, 'UNSPECIFIED' ) ;
#57 = CARTESIAN_POINT ( 'NONE',  ( 9.992007221626412800E-016, 4.884981308350691100E-015, 0.1694298073685980000 ) ) ;
#58 =( BOUNDED_SURFACE ( )  B_SPLINE_SURFACE ( 3, 3, ( 
 ( #200, #182, #219, #13 ),
 ( #218, #197, #161, #71 ),
 ( #184, #143, #145, #107 ),
 ( #75, #110, #146, #50 ) ),
 .UNSPECIFIED., .F., .F., .F. ) 
 B_SPLINE_SURFACE_WITH_KNOTS ( ( 4, 4 ),
 ( 4, 4 ),
 ( 0.0000000000000000000, 1.000000000000000000 ),
 ( 0.0000000000000000000, 1.000000000000000000 ),
 .UNSPECIFIED. ) 
 GEOMETRIC_REPRESENTATION_ITEM ( )  RATIONAL_B_SPLINE_SURFACE ( (
 ( 1.000000000000000000, 0.9999849902867454800, 0.9999849902867454800, 1.000000000000000000),
 ( 0.9999392435369389700, 0.9999242347356215300, 0.9999242347356215300, 0.9999392435369389700),
 ( 0.9999392435369389700, 0.9999242347356215300, 0.9999242347356215300, 0.9999392435369389700),
 ( 1.000000000000000000, 0.9999849902867454800, 0.9999849902867454800, 1.000000000000000000) ) ) 
 REPRESENTATION_ITEM ( '' )  SURFACE ( )  );
#59 = CARTESIAN_POINT ( 'NONE',  ( 17.03382220524802500, -25.70478159072433800, 0.2306724520520279900 ) ) ;
#60 = CALENDAR_DATE ( 2018, 13, 12 ) ;
#61 = ORIENTED_EDGE ( 'NONE', *, *, #37, .F. ) ;
#62 = CARTESIAN_POINT ( 'NONE',  ( 4.547473508864640200E-013, 3.410605131648479900E-013, 1904.000000000000200 ) ) ;
#63 = APPROVAL_STATUS ( 'not_yet_approved' ) ;
#64 = ADVANCED_FACE ( 'NONE', ( #153 ), #191, .T. ) ;
#65 = VERTEX_POINT ( 'NONE', #164 ) ;
#66 = APPROVAL_PERSON_ORGANIZATION ( #86, #122, #14 ) ;
#67 = VERTEX_POINT ( 'NONE', #201 ) ;
#68 = PRODUCT ( '110-1566E UVFS pl-cx 50.8 F4000', '110-1566E UVFS pl-cx 50.8 F4000', '', ( #19 ) ) ;
#69 = PRODUCT_DEFINITION_SHAPE ( 'NONE', 'NONE',  #202 ) ;
#70 = AXIS2_PLACEMENT_3D ( 'NONE', #222, #55, #134 ) ;
#71 = CARTESIAN_POINT ( 'NONE',  ( -7.979727989493312600E-014, -8.568781139076028500, -0.05784366721038158200 ) ) ;
#72 = CIRCLE ( 'NONE', #11, 1904.000000000000000 ) ;
#73 = PERSON_AND_ORGANIZATION_ROLE ( 'creator' ) ;
#74 = CARTESIAN_POINT ( 'NONE',  ( 9.992007221626412800E-016, 4.884981308350691100E-015, 6.000000000000000000 ) ) ;
#75 = CARTESIAN_POINT ( 'NONE',  ( -25.55006216788466800, 25.70478159072486300, 0.3449738656455814100 ) ) ;
#76 = CC_DESIGN_PERSON_AND_ORGANIZATION_ASSIGNMENT ( #148, #73, ( #30 ) ) ;
#77 = APPROVAL_DATE_TIME ( #142, #170 ) ;
#78 = ORIENTED_EDGE ( 'NONE', *, *, #7, .T. ) ;
#79 = CARTESIAN_POINT ( 'NONE',  ( 25.55006216788548900, -25.70478159072433400, 0.3449738656457833600 ) ) ;
#80 = DIRECTION ( 'NONE',  ( 1.000000000000000000, 0.0000000000000000000, 0.0000000000000000000 ) ) ;
#81 = CARTESIAN_POINT ( 'NONE',  ( -25.39999999999999900, 7.995584178184967200E-015, 0.1694298073685980000 ) ) ;
#82 = COORDINATED_UNIVERSAL_TIME_OFFSET ( 2, 0, .AHEAD. ) ;
#83 = SECURITY_CLASSIFICATION_LEVEL ( 'unclassified' ) ;
#84 = DESIGN_CONTEXT ( 'detailed design', #103, 'design' ) ;
#85 = CALENDAR_DATE ( 2018, 13, 12 ) ;
#86 = PERSON_AND_ORGANIZATION ( #178, #187 ) ;
#87 = EDGE_LOOP ( 'NONE', ( #61, #215, #109, #112, #149 ) ) ;
#88 = SECURITY_CLASSIFICATION ( '', '', #83 ) ;
#89 =( NAMED_UNIT ( * ) PLANE_ANGLE_UNIT ( ) SI_UNIT ( $, .RADIAN. ) );
#90 = CARTESIAN_POINT ( 'NONE',  ( 17.03589225492136100, 8.568781139076563100, -0.0006847282166575298200 ) ) ;
#91 = CARTESIAN_POINT ( 'NONE',  ( 25.55316716083462900, 8.568781139076566700, 0.1136305759532128800 ) ) ;
#92 = VERTEX_POINT ( 'NONE', #135 ) ;
#93 = PERSON_AND_ORGANIZATION_ROLE ( 'design_owner' ) ;
#94 = DIRECTION ( 'NONE',  ( 1.000000000000000000, 0.0000000000000000000, 0.0000000000000000000 ) ) ;
#95 = DIRECTION ( 'NONE',  ( 1.000000000000000000, 8.881784197001252300E-016, 0.0000000000000000000 ) ) ;
#96 = CARTESIAN_POINT ( 'NONE',  ( 8.517006980998639100, -25.70478159072433800, 0.1735204585024960300 ) ) ;
#97 = ORIENTED_EDGE ( 'NONE', *, *, #235, .F. ) ;
#98 = DIRECTION ( 'NONE',  ( 0.0000000000000000000, 0.0000000000000000000, 1.000000000000000000 ) ) ;
#99 = EDGE_CURVE ( 'NONE', #67, #10, #233, .T. ) ;
#100 = APPROVAL_PERSON_ORGANIZATION ( #120, #56, #181 ) ;
#101 = ADVANCED_FACE ( 'NONE', ( #136 ), #44, .T. ) ;
#102 = ORIENTED_EDGE ( 'NONE', *, *, #159, .F. ) ;
#103 = APPLICATION_CONTEXT ( 'configuration controlled 3d designs of mechanical parts and assemblies' ) ;
#104 = APPROVAL_STATUS ( 'not_yet_approved' ) ;
#105 = CARTESIAN_POINT ( 'NONE',  ( 25.55006216788547800, 25.70478159072487800, 0.3449738656455613700 ) ) ;
#106 = PERSON_AND_ORGANIZATION ( #178, #187 ) ;
#107 = CARTESIAN_POINT ( 'NONE',  ( -8.673617379884036700E-014, 8.568781139076559600, -0.05784366721060232900 ) ) ;
#108 = CC_DESIGN_APPROVAL ( #122, ( #202 ) ) ;
#109 = ORIENTED_EDGE ( 'NONE', *, *, #7, .F. ) ;
#110 = CARTESIAN_POINT ( 'NONE',  ( -17.03382220524737900, 25.70478159072487000, 0.2306724520518279600 ) ) ;
#111 = DIRECTION ( 'NONE',  ( 1.000000000000000000, 0.0000000000000000000, 0.0000000000000000000 ) ) ;
#112 = ORIENTED_EDGE ( 'NONE', *, *, #54, .T. ) ;
#113 = DIRECTION ( 'NONE',  ( 0.0000000000000000000, 0.0000000000000000000, 1.000000000000000000 ) ) ;
#114 = CARTESIAN_POINT ( 'NONE',  ( 25.39999999999999900, 4.884981308350691100E-015, 0.1694298073685980000 ) ) ;
#115 = CARTESIAN_POINT ( 'NONE',  ( 0.0000000000000000000, 52.02000000000000300, 6.000000000000000000 ) ) ;
#116 = PERSON_AND_ORGANIZATION ( #178, #187 ) ;
#117 = EDGE_LOOP ( 'NONE', ( #78, #139, #195 ) ) ;
#118 = CARTESIAN_POINT ( 'NONE',  ( 3.887403536526136700E-013, -8.568781139076028500, -0.05784366721039974100 ) ) ;
#119 = ORIENTED_EDGE ( 'NONE', *, *, #183, .T. ) ;
#120 = PERSON_AND_ORGANIZATION ( #178, #187 ) ;
#121 = CLOSED_SHELL ( 'NONE', ( #213, #64, #230, #173, #101 ) ) ;
#122 = APPROVAL ( #104, 'UNSPECIFIED' ) ;
#123 = FACE_OUTER_BOUND ( 'NONE', #117, .T. ) ;
#124 =( GEOMETRIC_REPRESENTATION_CONTEXT ( 3 ) GLOBAL_UNCERTAINTY_ASSIGNED_CONTEXT ( ( #152 ) ) GLOBAL_UNIT_ASSIGNED_CONTEXT ( ( #52, #89, #180 ) ) REPRESENTATION_CONTEXT ( 'NONE', 'WORKASPACE' ) );
#125 = CARTESIAN_POINT ( 'NONE',  ( 8.517006980998626600, 25.70478159072487800, 0.1735204585022739900 ) ) ;
#126 = COORDINATED_UNIVERSAL_TIME_OFFSET ( 2, 0, .AHEAD. ) ;
#127 = CIRCLE ( 'NONE', #48, 25.39999999999999900 ) ;
#128 = DATE_TIME_ROLE ( 'creation_date' ) ;
#129 = APPLICATION_CONTEXT ( 'configuration controlled 3d designs of mechanical parts and assemblies' ) ;
#130 = DATE_AND_TIME ( #193, #9 ) ;
#131 = DIRECTION ( 'NONE',  ( -0.0000000000000000000, -0.0000000000000000000, -1.000000000000000000 ) ) ;
#132 = COORDINATED_UNIVERSAL_TIME_OFFSET ( 2, 0, .AHEAD. ) ;
#133 = CARTESIAN_POINT ( 'NONE',  ( 25.39999999999999900, 4.884981308350691100E-015, 0.1694298073685980000 ) ) ;
#134 = DIRECTION ( 'NONE',  ( 1.000000000000000000, 0.0000000000000000000, 0.0000000000000000000 ) ) ;
#135 = CARTESIAN_POINT ( 'NONE',  ( -25.39999999999999900, 7.995584178184967200E-015, 6.000000000000000000 ) ) ;
#136 = FACE_OUTER_BOUND ( 'NONE', #157, .T. ) ;
#137 = CC_DESIGN_PERSON_AND_ORGANIZATION_ASSIGNMENT ( #106, #31, ( #88 ) ) ;
#138 = CALENDAR_DATE ( 2018, 13, 12 ) ;
#139 = ORIENTED_EDGE ( 'NONE', *, *, #159, .T. ) ;
#140 = AXIS2_PLACEMENT_3D ( 'NONE', #228, #210, #95 ) ;
#141 =( BOUNDED_SURFACE ( )  B_SPLINE_SURFACE ( 3, 3, ( 
 ( #209, #96, #59, #79 ),
 ( #118, #229, #28, #34 ),
 ( #163, #2, #90, #91 ),
 ( #18, #125, #144, #105 ) ),
 .UNSPECIFIED., .F., .F., .F. ) 
 B_SPLINE_SURFACE_WITH_KNOTS ( ( 4, 4 ),
 ( 4, 4 ),
 ( 0.0000000000000000000, 1.000000000000000000 ),
 ( 0.0000000000000000000, 1.000000000000000000 ),
 .UNSPECIFIED. ) 
 GEOMETRIC_REPRESENTATION_ITEM ( )  RATIONAL_B_SPLINE_SURFACE ( (
 ( 1.000000000000000000, 0.9999849902867454800, 0.9999849902867454800, 1.000000000000000000),
 ( 0.9999392435369389700, 0.9999242347356215300, 0.9999242347356215300, 0.9999392435369389700),
 ( 0.9999392435369389700, 0.9999242347356215300, 0.9999242347356215300, 0.9999392435369389700),
 ( 1.000000000000000000, 0.9999849902867454800, 0.9999849902867454800, 1.000000000000000000) ) ) 
 REPRESENTATION_ITEM ( '' )  SURFACE ( )  );
#142 = DATE_AND_TIME ( #60, #8 ) ;
#143 = CARTESIAN_POINT ( 'NONE',  ( -17.03589225492071100, 8.568781139076552500, -0.0006847282166355206200 ) ) ;
#144 = CARTESIAN_POINT ( 'NONE',  ( 17.03382220524801800, 25.70478159072487800, 0.2306724520518060000 ) ) ;
#145 = CARTESIAN_POINT ( 'NONE',  ( -8.518042017486530800, 8.568781139076556000, -0.05784366721059990700 ) ) ;
#146 = CARTESIAN_POINT ( 'NONE',  ( -8.517006980998170100, 25.70478159072487000, 0.1735204585022948600 ) ) ;
#147 = CC_DESIGN_DATE_AND_TIME_ASSIGNMENT ( #24, #128, ( #202 ) ) ;
#148 = PERSON_AND_ORGANIZATION ( #178, #187 ) ;
#149 = ORIENTED_EDGE ( 'NONE', *, *, #235, .T. ) ;
#150 = CC_DESIGN_DATE_AND_TIME_ASSIGNMENT ( #174, #171, ( #88 ) ) ;
#151 = CARTESIAN_POINT ( 'NONE',  ( 9.992007221626412800E-016, 4.884981308350691100E-015, 0.1694298073685980000 ) ) ;
#152 = UNCERTAINTY_MEASURE_WITH_UNIT (LENGTH_MEASURE( 1.000000000000000100E-005 ), #52, 'distance_accuracy_value', 'NONE');
#153 = FACE_OUTER_BOUND ( 'NONE', #207, .T. ) ;
#154 = CC_DESIGN_PERSON_AND_ORGANIZATION_ASSIGNMENT ( #116, #93, ( #68 ) ) ;
#155 = SHAPE_DEFINITION_REPRESENTATION ( #69, #43 ) ;
#156 = PERSON_AND_ORGANIZATION ( #178, #187 ) ;
#157 = EDGE_LOOP ( 'NONE', ( #97, #47 ) ) ;
#158 = CC_DESIGN_PERSON_AND_ORGANIZATION_ASSIGNMENT ( #156, #169, ( #30 ) ) ;
#159 = EDGE_CURVE ( 'NONE', #65, #67, #72, .T. ) ;
#160 = APPLICATION_PROTOCOL_DEFINITION ( 'international standard', 'config_control_design', 1994, #103 ) ;
#161 = CARTESIAN_POINT ( 'NONE',  ( -8.518042017486523700, -8.568781139076028500, -0.05784366721037917400 ) ) ;
#162 = CARTESIAN_POINT ( 'NONE',  ( 0.0000000000000000000, 0.0000000000000000000, 0.0000000000000000000 ) ) ;
#163 = CARTESIAN_POINT ( 'NONE',  ( 3.845555372181102600E-013, 8.568781139076559600, -0.05784366721062043200 ) ) ;
#164 = CARTESIAN_POINT ( 'NONE',  ( 3.928584927041447100E-013, -25.39999999999469800, 0.1694298073686343100 ) ) ;
#165 = AXIS2_PLACEMENT_3D ( 'NONE', #23, #131, #223 ) ;
#166 = CARTESIAN_POINT ( 'NONE',  ( 9.992007221626412800E-016, 4.884981308350691100E-015, 6.000000000000000000 ) ) ;
#167 = DIRECTION ( 'NONE',  ( 0.0000000000000000000, 0.0000000000000000000, 1.000000000000000000 ) ) ;
#168 = ORIENTED_EDGE ( 'NONE', *, *, #35, .F. ) ;
#169 = PERSON_AND_ORGANIZATION_ROLE ( 'design_supplier' ) ;
#170 = APPROVAL ( #63, 'UNSPECIFIED' ) ;
#171 = DATE_TIME_ROLE ( 'classification_date' ) ;
#172 = LINE ( 'NONE', #225, #211 ) ;
#173 = ADVANCED_FACE ( 'NONE', ( #212 ), #1, .T. ) ;
#174 = DATE_AND_TIME ( #138, #226 ) ;
#175 = ORIENTED_EDGE ( 'NONE', *, *, #99, .F. ) ;
#176 = COORDINATED_UNIVERSAL_TIME_OFFSET ( 2, 0, .AHEAD. ) ;
#177 = CIRCLE ( 'NONE', #46, 25.39999999999999900 ) ;
#178 = PERSON ( 'UNSPECIFIED', 'UNSPECIFIED', 'UNSPECIFIED', ('UNSPECIFIED'), ('UNSPECIFIED'), ('UNSPECIFIED') ) ;
#179 = LOCAL_TIME ( 17, 8, 17.00000000000000000, #176 ) ;
#180 =( NAMED_UNIT ( * ) SI_UNIT ( $, .STERADIAN. ) SOLID_ANGLE_UNIT ( ) );
#181 = APPROVAL_ROLE ( '' ) ;
#182 = CARTESIAN_POINT ( 'NONE',  ( -17.03382220524736500, -25.70478159072434500, 0.2306724520520500300 ) ) ;
#183 = EDGE_CURVE ( 'NONE', #65, #203, #177, .T. ) ;
#184 = CARTESIAN_POINT ( 'NONE',  ( -25.55316716083381600, 8.568781139076552500, 0.1136305759532329600 ) ) ;
#185 = DIRECTION ( 'NONE',  ( 1.000000000000000000, 0.0000000000000000000, 0.0000000000000000000 ) ) ;
#186 = CC_DESIGN_APPROVAL ( #170, ( #88 ) ) ;
#187 = ORGANIZATION ( 'UNSPECIFIED', 'UNSPECIFIED', '' ) ;
#188 = DIRECTION ( 'NONE',  ( -0.0000000000000000000, -0.0000000000000000000, -1.000000000000000000 ) ) ;
#189 = PERSON_AND_ORGANIZATION ( #178, #187 ) ;
#190 = APPROVAL_ROLE ( '' ) ;
#191 = CYLINDRICAL_SURFACE ( 'NONE', #194, 25.39999999999999900 ) ;
#192 = AXIS2_PLACEMENT_3D ( 'NONE', #162, #36, #216 ) ;
#193 = CALENDAR_DATE ( 2018, 13, 12 ) ;
#194 = AXIS2_PLACEMENT_3D ( 'NONE', #151, #167, #111 ) ;
#195 = ORIENTED_EDGE ( 'NONE', *, *, #99, .T. ) ;
#196 = PRODUCT_RELATED_PRODUCT_CATEGORY ( 'detail', '', ( #68 ) ) ;
#197 = CARTESIAN_POINT ( 'NONE',  ( -17.03589225492070000, -8.568781139076032000, -0.0006847282164148177100 ) ) ;
#198 = DIRECTION ( 'NONE',  ( -0.0000000000000000000, -0.0000000000000000000, -1.000000000000000000 ) ) ;
#199 = CIRCLE ( 'NONE', #208, 25.39999999999999900 ) ;
#200 = CARTESIAN_POINT ( 'NONE',  ( -25.55006216788465400, -25.70478159072434800, 0.3449738656458034600 ) ) ;
#201 = CARTESIAN_POINT ( 'NONE',  ( 3.804536552236271900E-013, 25.39999999999503900, 0.1694298073686343100 ) ) ;
#202 = PRODUCT_DEFINITION ( 'UNKNOWN', '', #30, #84 ) ;
#203 = VERTEX_POINT ( 'NONE', #81 ) ;
#204 = DIRECTION ( 'NONE',  ( -0.0000000000000000000, -0.0000000000000000000, -1.000000000000000000 ) ) ;
#205 = DIRECTION ( 'NONE',  ( 0.0000000000000000000, 0.0000000000000000000, 1.000000000000000000 ) ) ;
#206 = APPROVAL_DATE_TIME ( #130, #56 ) ;
#207 = EDGE_LOOP ( 'NONE', ( #168, #12, #6, #45, #175 ) ) ;
#208 = AXIS2_PLACEMENT_3D ( 'NONE', #57, #204, #185 ) ;
#209 = CARTESIAN_POINT ( 'NONE',  ( 3.929330635374797500E-013, -25.70478159072434100, 0.1735204585024963100 ) ) ;
#210 = DIRECTION ( 'NONE',  ( -0.0000000000000000000, -0.0000000000000000000, -1.000000000000000000 ) ) ;
#211 = VECTOR ( 'NONE', #113, 1000.000000000000000 ) ;
#212 = FACE_OUTER_BOUND ( 'NONE', #87, .T. ) ;
#213 = ADVANCED_FACE ( 'NONE', ( #123 ), #141, .T. ) ;
#214 = CC_DESIGN_PERSON_AND_ORGANIZATION_ASSIGNMENT ( #189, #3, ( #202 ) ) ;
#215 = ORIENTED_EDGE ( 'NONE', *, *, #183, .F. ) ;
#216 = DIRECTION ( 'NONE',  ( 1.000000000000000000, 0.0000000000000000000, 0.0000000000000000000 ) ) ;
#217 = EDGE_LOOP ( 'NONE', ( #102, #119, #21 ) ) ;
#218 = CARTESIAN_POINT ( 'NONE',  ( -25.55316716083380500, -8.568781139076035600, 0.1136305759534536500 ) ) ;
#219 = CARTESIAN_POINT ( 'NONE',  ( -8.517006980998150600, -25.70478159072434500, 0.1735204585025168500 ) ) ;
#220 = CC_DESIGN_SECURITY_CLASSIFICATION ( #88, ( #30 ) ) ;
#221 = CIRCLE ( 'NONE', #32, 25.39999999999999900 ) ;
#222 = CARTESIAN_POINT ( 'NONE',  ( 9.992007221626412800E-016, 4.884981308350691100E-015, 0.1694298073685980000 ) ) ;
#223 = DIRECTION ( 'NONE',  ( 1.000000000000000000, 0.0000000000000000000, 0.0000000000000000000 ) ) ;
#224 = DIRECTION ( 'NONE',  ( -0.0000000000000000000, -0.0000000000000000000, -1.000000000000000000 ) ) ;
#225 = CARTESIAN_POINT ( 'NONE',  ( -25.39999999999999900, 7.995584178184967200E-015, 0.1694298073685980000 ) ) ;
#226 = LOCAL_TIME ( 17, 8, 17.00000000000000000, #82 ) ;
#227 = VERTEX_POINT ( 'NONE', #38 ) ;
#228 = CARTESIAN_POINT ( 'NONE',  ( 9.992007221626412800E-016, 4.884981308350691100E-015, 0.1694298073685980000 ) ) ;
#229 = CARTESIAN_POINT ( 'NONE',  ( 8.518042017487003300, -8.568781139076024900, -0.05784366721040005300 ) ) ;
#230 = ADVANCED_FACE ( 'NONE', ( #26 ), #58, .T. ) ;
#231 = APPROVAL_DATE_TIME ( #49, #122 ) ;
#232 = DIRECTION ( 'NONE',  ( 2.441897141834630300E-016, -1.000000000000000000, -4.664802624475447800E-016 ) ) ;
#233 = CIRCLE ( 'NONE', #140, 25.39999999999999900 ) ;
#234 = MANIFOLD_SOLID_BREP ( 'Imported1', #121 ) ;
#235 = EDGE_CURVE ( 'NONE', #227, #92, #221, .T. ) ;
ENDSEC;
END-ISO-10303-21;
