ISO-10303-21;
HEADER;
FILE_DESCRIPTION (( 'STEP AP203' ),
    '1' );
FILE_NAME ('110-1565E UVFS pl-cx 50.8 F2500.STEP',
    '2018-12-14T13:27:50',
    ( '' ),
    ( '' ),
    'SwSTEP 2.0',
    'SolidWorks 2017',
    '' );
FILE_SCHEMA (( 'CONFIG_CONTROL_DESIGN' ));
ENDSEC;

DATA;
#1 = ORIENTED_EDGE ( 'NONE', *, *, #193, .F. ) ;
#2 = CARTESIAN_POINT ( 'NONE',  ( 25.55436425331285100, -8.569583930954021200, 0.1818257507334789500 ) ) ;
#3 = CARTESIAN_POINT ( 'NONE',  ( 8.518939817662378300, -8.569583930954030000, -0.09256501595247004800 ) ) ;
#4 = CARTESIAN_POINT ( 'NONE',  ( 4.223603727074769500E-014, 8.569583930954076200, -0.09256501595247021400 ) ) ;
#5 = SECURITY_CLASSIFICATION_LEVEL ( 'unclassified' ) ;
#6 = MECHANICAL_CONTEXT ( 'NONE', #99, 'mechanical' ) ;
#7 = PERSON_AND_ORGANIZATION ( #81, #165 ) ;
#8 = EDGE_LOOP ( 'NONE', ( #215, #143, #224 ) ) ;
#9 = ADVANCED_FACE ( 'NONE', ( #181 ), #77, .T. ) ;
#10 = ADVANCED_BREP_SHAPE_REPRESENTATION ( '110-1565E UVFS pl-cx 50.8 F2500', ( #153, #231 ), #133 ) ;
#11 = PRODUCT_RELATED_PRODUCT_CATEGORY ( 'detail', '', ( #207 ) ) ;
#12 = PERSON_AND_ORGANIZATION ( #81, #165 ) ;
#13 = LOCAL_TIME ( 15, 27, 50.00000000000000000, #47 ) ;
#14 = PRODUCT_DEFINITION ( 'UNKNOWN', '', #42, #52 ) ;
#15 = CARTESIAN_POINT ( 'NONE',  ( -25.39999999999999900, 7.995584178184967200E-015, 0.2711065120760060000 ) ) ;
#16 = CARTESIAN_POINT ( 'NONE',  ( -25.54641473996955600, 25.70475286704840200, 0.5519572616980994400 ) ) ;
#17 = CARTESIAN_POINT ( 'NONE',  ( -25.54641473996953800, -25.70475286704837700, 0.5519572616980994400 ) ) ;
#18 = EDGE_CURVE ( 'NONE', #87, #226, #196, .T. ) ;
#19 = CALENDAR_DATE ( 2018, 14, 12 ) ;
#20 = EDGE_LOOP ( 'NONE', ( #43, #83, #72 ) ) ;
#21 = DIRECTION ( 'NONE',  ( 0.0000000000000000000, 0.0000000000000000000, 1.000000000000000000 ) ) ;
#22 =( NAMED_UNIT ( * ) PLANE_ANGLE_UNIT ( ) SI_UNIT ( $, .RADIAN. ) );
#23 = EDGE_CURVE ( 'NONE', #74, #226, #137, .T. ) ;
#24 = FACE_OUTER_BOUND ( 'NONE', #159, .T. ) ;
#25 = CARTESIAN_POINT ( 'NONE',  ( 9.992007221626412800E-016, 4.884981308350691100E-015, 6.000000000000000000 ) ) ;
#26 = APPROVAL_ROLE ( '' ) ;
#27 = APPROVAL_DATE_TIME ( #71, #90 ) ;
#28 = DATE_TIME_ROLE ( 'creation_date' ) ;
#29 = CC_DESIGN_DATE_AND_TIME_ASSIGNMENT ( #139, #28, ( #14 ) ) ;
#30 = PERSON_AND_ORGANIZATION_ROLE ( 'creator' ) ;
#31 = ORIENTED_EDGE ( 'NONE', *, *, #110, .T. ) ;
#32 = EDGE_CURVE ( 'NONE', #74, #176, #140, .T. ) ;
#33 = LOCAL_TIME ( 15, 27, 50.00000000000000000, #199 ) ;
#34 = CIRCLE ( 'NONE', #225, 25.39999999999999900 ) ;
#35 = CLOSED_SHELL ( 'NONE', ( #105, #69, #9, #68, #178 ) ) ;
#36 = AXIS2_PLACEMENT_3D ( 'NONE', #127, #232, #161 ) ;
#37 = CARTESIAN_POINT ( 'NONE',  ( -2.428612866367529900E-013, -8.569583930954030000, -0.09256501595233147800 ) ) ;
#38 = DIRECTION ( 'NONE',  ( 0.0000000000000000000, 0.0000000000000000000, 1.000000000000000000 ) ) ;
#39 = ORIENTED_EDGE ( 'NONE', *, *, #104, .T. ) ;
#40 = CARTESIAN_POINT ( 'NONE',  ( -2.498001805406602700E-013, 8.569583930954076200, -0.09256501595233213000 ) ) ;
#41 = DIRECTION ( 'NONE',  ( 1.000000000000000000, 0.0000000000000000000, -0.0000000000000000000 ) ) ;
#42 = PRODUCT_DEFINITION_FORMATION_WITH_SPECIFIED_SOURCE ( 'ANY', '', #207, .NOT_KNOWN. ) ;
#43 = ORIENTED_EDGE ( 'NONE', *, *, #193, .T. ) ;
#44 = CARTESIAN_POINT ( 'NONE',  ( 25.54641473996911900, -25.70475286704835600, 0.5519572616980411600 ) ) ;
#45 = CARTESIAN_POINT ( 'NONE',  ( 17.03738858406773800, 8.569583930954085100, -0.001097912141160976100 ) ) ;
#46 = DIRECTION ( 'NONE',  ( 1.000000000000000000, 0.0000000000000000000, 0.0000000000000000000 ) ) ;
#47 = COORDINATED_UNIVERSAL_TIME_OFFSET ( 2, 0, .AHEAD. ) ;
#48 = APPLICATION_PROTOCOL_DEFINITION ( 'international standard', 'config_control_design', 1994, #197 ) ;
#49 = APPLICATION_PROTOCOL_DEFINITION ( 'international standard', 'config_control_design', 1994, #99 ) ;
#50 = APPROVAL_STATUS ( 'not_yet_approved' ) ;
#51 = APPROVAL_ROLE ( '' ) ;
#52 = DESIGN_CONTEXT ( 'detailed design', #197, 'design' ) ;
#53 = VECTOR ( 'NONE', #109, 1000.000000000000000 ) ;
#54 = CC_DESIGN_APPROVAL ( #90, ( #14 ) ) ;
#55 = CARTESIAN_POINT ( 'NONE',  ( -17.03208855208339800, 25.70475286704840900, 0.3690905031582473200 ) ) ;
#56 = CARTESIAN_POINT ( 'NONE',  ( -25.39999999999999900, 7.995584178184967200E-015, 0.2711065120760060000 ) ) ;
#57 = APPROVAL_DATE_TIME ( #191, #138 ) ;
#58 = CARTESIAN_POINT ( 'NONE',  ( -8.518939817662655400, 8.569583930954074400, -0.09256501595232956300 ) ) ;
#59 = CARTESIAN_POINT ( 'NONE',  ( -8.516289725291606800, 25.70475286704840900, 0.2776518531545664700 ) ) ;
#60 = CARTESIAN_POINT ( 'NONE',  ( 25.39999999999999900, 4.884981308350691100E-015, 0.2711065120760060000 ) ) ;
#61 = CARTESIAN_POINT ( 'NONE',  ( 9.992007221626412800E-016, 4.884981308350691100E-015, 0.2711065120760060000 ) ) ;
#62 = PERSON_AND_ORGANIZATION ( #81, #165 ) ;
#63 = PRODUCT_DEFINITION_SHAPE ( 'NONE', 'NONE',  #14 ) ;
#64 = CARTESIAN_POINT ( 'NONE',  ( 5.564832761293712900E-014, -25.70475286704836600, 0.2776518531544258700 ) ) ;
#65 = CARTESIAN_POINT ( 'NONE',  ( 9.992007221626412800E-016, 4.884981308350691100E-015, 6.000000000000000000 ) ) ;
#66 = APPROVAL_DATE_TIME ( #102, #118 ) ;
#67 = APPROVAL_PERSON_ORGANIZATION ( #203, #90, #51 ) ;
#68 = ADVANCED_FACE ( 'NONE', ( #216 ), #116, .T. ) ;
#69 = ADVANCED_FACE ( 'NONE', ( #84 ), #108, .T. ) ;
#70 = AXIS2_PLACEMENT_3D ( 'NONE', #190, #75, #206 ) ;
#71 = DATE_AND_TIME ( #85, #82 ) ;
#72 = ORIENTED_EDGE ( 'NONE', *, *, #145, .T. ) ;
#73 = SHAPE_DEFINITION_REPRESENTATION ( #63, #10 ) ;
#74 = VERTEX_POINT ( 'NONE', #56 ) ;
#75 = DIRECTION ( 'NONE',  ( -0.0000000000000000000, -0.0000000000000000000, -1.000000000000000000 ) ) ;
#76 = CARTESIAN_POINT ( 'NONE',  ( 4.893237087321444100E-014, -8.569583930954030000, -0.09256501595246957600 ) ) ;
#77 =( BOUNDED_SURFACE ( )  B_SPLINE_SURFACE ( 3, 3, ( 
 ( #17, #112, #185, #89 ),
 ( #187, #146, #162, #37 ),
 ( #182, #125, #58, #40 ),
 ( #16, #55, #59, #164 ) ),
 .UNSPECIFIED., .F., .F., .F. ) 
 B_SPLINE_SURFACE_WITH_KNOTS ( ( 4, 4 ),
 ( 4, 4 ),
 ( 0.0000000000000000000, 1.000000000000000000 ),
 ( 0.0000000000000000000, 1.000000000000000000 ),
 .UNSPECIFIED. ) 
 GEOMETRIC_REPRESENTATION_ITEM ( )  RATIONAL_B_SPLINE_SURFACE ( (
 ( 1.000000000000000000, 0.9999615718021667200, 0.9999615718021667200, 1.000000000000000000),
 ( 0.9998444527433308900, 0.9998060305228984000, 0.9998060305228984000, 0.9998444527433308900),
 ( 0.9998444527433308900, 0.9998060305228984000, 0.9998060305228984000, 0.9998444527433308900),
 ( 1.000000000000000000, 0.9999615718021667200, 0.9999615718021667200, 1.000000000000000000) ) ) 
 REPRESENTATION_ITEM ( '' )  SURFACE ( )  );
#78 = ORIENTED_EDGE ( 'NONE', *, *, #110, .F. ) ;
#79 = DIRECTION ( 'NONE',  ( 0.0000000000000000000, 0.0000000000000000000, 1.000000000000000000 ) ) ;
#80 = DIRECTION ( 'NONE',  ( -0.0000000000000000000, -0.0000000000000000000, -1.000000000000000000 ) ) ;
#81 = PERSON ( 'UNSPECIFIED', 'UNSPECIFIED', 'UNSPECIFIED', ('UNSPECIFIED'), ('UNSPECIFIED'), ('UNSPECIFIED') ) ;
#82 = LOCAL_TIME ( 15, 27, 50.00000000000000000, #158 ) ;
#83 = ORIENTED_EDGE ( 'NONE', *, *, #18, .T. ) ;
#84 = FACE_OUTER_BOUND ( 'NONE', #155, .T. ) ;
#85 = CALENDAR_DATE ( 2018, 14, 12 ) ;
#86 = VERTEX_POINT ( 'NONE', #60 ) ;
#87 = VERTEX_POINT ( 'NONE', #188 ) ;
#88 = CARTESIAN_POINT ( 'NONE',  ( 9.992007221626412800E-016, 4.884981308350691100E-015, 0.2711065120760060000 ) ) ;
#89 = CARTESIAN_POINT ( 'NONE',  ( -2.393918396847993800E-013, -25.70475286704836600, 0.2776518531545640300 ) ) ;
#90 = APPROVAL ( #156, 'UNSPECIFIED' ) ;
#91 = LINE ( 'NONE', #183, #169 ) ;
#92 = DIRECTION ( 'NONE',  ( -0.0000000000000000000, -0.0000000000000000000, -1.000000000000000000 ) ) ;
#93 = PLANE ( 'NONE',  #211 ) ;
#94 = CARTESIAN_POINT ( 'NONE',  ( 25.54641473996910200, 25.70475286704842300, 0.5519572616980411600 ) ) ;
#95 = LOCAL_TIME ( 15, 27, 50.00000000000000000, #142 ) ;
#96 = CIRCLE ( 'NONE', #172, 25.39999999999999900 ) ;
#97 = CARTESIAN_POINT ( 'NONE',  ( 3.556245159450166700E-014, 25.70475286704841300, 0.2776518531544258700 ) ) ;
#98 = DIRECTION ( 'NONE',  ( 1.000000000000000000, 0.0000000000000000000, 0.0000000000000000000 ) ) ;
#99 = APPLICATION_CONTEXT ( 'configuration controlled 3d designs of mechanical parts and assemblies' ) ;
#100 = EDGE_CURVE ( 'NONE', #87, #74, #96, .T. ) ;
#101 = CALENDAR_DATE ( 2018, 14, 12 ) ;
#102 = DATE_AND_TIME ( #19, #223 ) ;
#103 = PERSON_AND_ORGANIZATION_ROLE ( 'design_supplier' ) ;
#104 = EDGE_CURVE ( 'NONE', #86, #173, #91, .T. ) ;
#105 = ADVANCED_FACE ( 'NONE', ( #122 ), #123, .T. ) ;
#106 = APPROVAL_PERSON_ORGANIZATION ( #62, #138, #26 ) ;
#107 = COORDINATED_UNIVERSAL_TIME_OFFSET ( 2, 0, .AHEAD. ) ;
#108 = CYLINDRICAL_SURFACE ( 'NONE', #163, 25.39999999999999900 ) ;
#109 = DIRECTION ( 'NONE',  ( 0.0000000000000000000, 0.0000000000000000000, 1.000000000000000000 ) ) ;
#110 = EDGE_CURVE ( 'NONE', #173, #176, #221, .T. ) ;
#111 = DIRECTION ( 'NONE',  ( 0.0000000000000000000, 0.0000000000000000000, 1.000000000000000000 ) ) ;
#112 = CARTESIAN_POINT ( 'NONE',  ( -17.03208855208337600, -25.70475286704837700, 0.3690905031582473200 ) ) ;
#113 = DIRECTION ( 'NONE',  ( 1.000000000000000000, -8.881784197001252300E-016, 0.0000000000000000000 ) ) ;
#114 = CARTESIAN_POINT ( 'NONE',  ( 17.03208855208303500, -25.70475286704836300, 0.3690905031581954200 ) ) ;
#115 = PERSON_AND_ORGANIZATION ( #81, #165 ) ;
#116 = CYLINDRICAL_SURFACE ( 'NONE', #213, 25.39999999999999900 ) ;
#117 = DIRECTION ( 'NONE',  ( -0.0000000000000000000, -0.0000000000000000000, -1.000000000000000000 ) ) ;
#118 = APPROVAL ( #136, 'UNSPECIFIED' ) ;
#119 = APPROVAL_ROLE ( '' ) ;
#120 = PERSON_AND_ORGANIZATION_ROLE ( 'design_owner' ) ;
#121 = PERSON_AND_ORGANIZATION_ROLE ( 'creator' ) ;
#122 = FACE_OUTER_BOUND ( 'NONE', #20, .T. ) ;
#123 =( BOUNDED_SURFACE ( )  B_SPLINE_SURFACE ( 3, 3, ( 
 ( #64, #204, #114, #44 ),
 ( #76, #3, #148, #2 ),
 ( #4, #195, #45, #220 ),
 ( #97, #170, #192, #94 ) ),
 .UNSPECIFIED., .F., .F., .F. ) 
 B_SPLINE_SURFACE_WITH_KNOTS ( ( 4, 4 ),
 ( 4, 4 ),
 ( 0.0000000000000000000, 1.000000000000000000 ),
 ( 0.0000000000000000000, 1.000000000000000000 ),
 .UNSPECIFIED. ) 
 GEOMETRIC_REPRESENTATION_ITEM ( )  RATIONAL_B_SPLINE_SURFACE ( (
 ( 1.000000000000000000, 0.9999615718021667200, 0.9999615718021667200, 1.000000000000000000),
 ( 0.9998444527433308900, 0.9998060305228984000, 0.9998060305228984000, 0.9998444527433308900),
 ( 0.9998444527433308900, 0.9998060305228984000, 0.9998060305228984000, 0.9998444527433308900),
 ( 1.000000000000000000, 0.9999615718021667200, 0.9999615718021667200, 1.000000000000000000) ) ) 
 REPRESENTATION_ITEM ( '' )  SURFACE ( )  );
#124 = CC_DESIGN_PERSON_AND_ORGANIZATION_ASSIGNMENT ( #12, #103, ( #42 ) ) ;
#125 = CARTESIAN_POINT ( 'NONE',  ( -17.03738858406810400, 8.569583930954070900, -0.001097912141109151400 ) ) ;
#126 = ORIENTED_EDGE ( 'NONE', *, *, #104, .F. ) ;
#127 = CARTESIAN_POINT ( 'NONE',  ( 1.136868377216160000E-013, 0.0000000000000000000, 1190.000000000000000 ) ) ;
#128 = SECURITY_CLASSIFICATION ( '', '', #5 ) ;
#129 = DIRECTION ( 'NONE',  ( 1.000000000000000000, 0.0000000000000000000, 0.0000000000000000000 ) ) ;
#130 = CARTESIAN_POINT ( 'NONE',  ( 3.568114506443414100E-014, 25.39999999999923500, 0.2711065120759821300 ) ) ;
#131 =( LENGTH_UNIT ( ) NAMED_UNIT ( * ) SI_UNIT ( .MILLI., .METRE. ) );
#132 = CIRCLE ( 'NONE', #70, 25.39999999999999900 ) ;
#133 =( GEOMETRIC_REPRESENTATION_CONTEXT ( 3 ) GLOBAL_UNCERTAINTY_ASSIGNED_CONTEXT ( ( #174 ) ) GLOBAL_UNIT_ASSIGNED_CONTEXT ( ( #131, #22, #150 ) ) REPRESENTATION_CONTEXT ( 'NONE', 'WORKASPACE' ) );
#134 = DATE_TIME_ROLE ( 'classification_date' ) ;
#135 = ORIENTED_EDGE ( 'NONE', *, *, #157, .T. ) ;
#136 = APPROVAL_STATUS ( 'not_yet_approved' ) ;
#137 = CIRCLE ( 'NONE', #177, 25.39999999999999900 ) ;
#138 = APPROVAL ( #50, 'UNSPECIFIED' ) ;
#139 = DATE_AND_TIME ( #152, #33 ) ;
#140 = LINE ( 'NONE', #15, #53 ) ;
#141 = AXIS2_PLACEMENT_3D ( 'NONE', #167, #194, #171 ) ;
#142 = COORDINATED_UNIVERSAL_TIME_OFFSET ( 2, 0, .AHEAD. ) ;
#143 = ORIENTED_EDGE ( 'NONE', *, *, #100, .T. ) ;
#144 = CARTESIAN_POINT ( 'NONE',  ( 9.992007221626412800E-016, 4.884981308350691100E-015, 0.2711065120760060000 ) ) ;
#145 = EDGE_CURVE ( 'NONE', #226, #86, #166, .T. ) ;
#146 = CARTESIAN_POINT ( 'NONE',  ( -17.03738858406809700, -8.569583930954040700, -0.001097912141108501100 ) ) ;
#147 = CARTESIAN_POINT ( 'NONE',  ( 0.0000000000000000000, 52.02000000000000300, 6.000000000000000000 ) ) ;
#148 = CARTESIAN_POINT ( 'NONE',  ( 17.03738858406774500, -8.569583930954026500, -0.001097912141160325500 ) ) ;
#149 = CC_DESIGN_APPROVAL ( #138, ( #128 ) ) ;
#150 =( NAMED_UNIT ( * ) SI_UNIT ( $, .STERADIAN. ) SOLID_ANGLE_UNIT ( ) );
#151 = CARTESIAN_POINT ( 'NONE',  ( 25.39999999999999900, 4.884981308350691100E-015, 6.000000000000000000 ) ) ;
#152 = CALENDAR_DATE ( 2018, 14, 12 ) ;
#153 = MANIFOLD_SOLID_BREP ( 'Imported1', #35 ) ;
#154 = DATE_AND_TIME ( #101, #13 ) ;
#155 = EDGE_LOOP ( 'NONE', ( #179, #230, #135, #126, #200 ) ) ;
#156 = APPROVAL_STATUS ( 'not_yet_approved' ) ;
#157 = EDGE_CURVE ( 'NONE', #176, #173, #34, .T. ) ;
#158 = COORDINATED_UNIVERSAL_TIME_OFFSET ( 2, 0, .AHEAD. ) ;
#159 = EDGE_LOOP ( 'NONE', ( #78, #186 ) ) ;
#160 = CC_DESIGN_SECURITY_CLASSIFICATION ( #128, ( #42 ) ) ;
#161 = DIRECTION ( 'NONE',  ( 3.907035426935399000E-016, -1.000000000000000000, -7.463684199160716300E-016 ) ) ;
#162 = CARTESIAN_POINT ( 'NONE',  ( -8.518939817662648300, -8.569583930954037100, -0.09256501595232891100 ) ) ;
#163 = AXIS2_PLACEMENT_3D ( 'NONE', #233, #217, #129 ) ;
#164 = CARTESIAN_POINT ( 'NONE',  ( -2.602085213965210600E-013, 25.70475286704841300, 0.2776518531545639200 ) ) ;
#165 = ORGANIZATION ( 'UNSPECIFIED', 'UNSPECIFIED', '' ) ;
#166 = CIRCLE ( 'NONE', #141, 25.39999999999999900 ) ;
#167 = CARTESIAN_POINT ( 'NONE',  ( 9.992007221626412800E-016, 4.884981308350691100E-015, 0.2711065120760060000 ) ) ;
#168 = DIRECTION ( 'NONE',  ( 1.000000000000000000, 0.0000000000000000000, 0.0000000000000000000 ) ) ;
#169 = VECTOR ( 'NONE', #111, 1000.000000000000000 ) ;
#170 = CARTESIAN_POINT ( 'NONE',  ( 8.516289725291304800, 25.70475286704841600, 0.2776518531544253100 ) ) ;
#171 = DIRECTION ( 'NONE',  ( 1.000000000000000000, 1.776356839400250500E-015, 0.0000000000000000000 ) ) ;
#172 = AXIS2_PLACEMENT_3D ( 'NONE', #61, #80, #168 ) ;
#173 = VERTEX_POINT ( 'NONE', #151 ) ;
#174 = UNCERTAINTY_MEASURE_WITH_UNIT (LENGTH_MEASURE( 1.000000000000000100E-005 ), #131, 'distance_accuracy_value', 'NONE');
#175 = CC_DESIGN_APPROVAL ( #118, ( #42 ) ) ;
#176 = VERTEX_POINT ( 'NONE', #219 ) ;
#177 = AXIS2_PLACEMENT_3D ( 'NONE', #144, #92, #113 ) ;
#178 = ADVANCED_FACE ( 'NONE', ( #24 ), #93, .T. ) ;
#179 = ORIENTED_EDGE ( 'NONE', *, *, #23, .F. ) ;
#180 = CC_DESIGN_PERSON_AND_ORGANIZATION_ASSIGNMENT ( #209, #30, ( #42 ) ) ;
#181 = FACE_OUTER_BOUND ( 'NONE', #8, .T. ) ;
#182 = CARTESIAN_POINT ( 'NONE',  ( -25.55436425331328800, 8.569583930954065600, 0.1818257507335365200 ) ) ;
#183 = CARTESIAN_POINT ( 'NONE',  ( 25.39999999999999900, 4.884981308350691100E-015, 0.2711065120760060000 ) ) ;
#184 = CC_DESIGN_PERSON_AND_ORGANIZATION_ASSIGNMENT ( #7, #120, ( #207 ) ) ;
#185 = CARTESIAN_POINT ( 'NONE',  ( -8.516289725291585500, -25.70475286704837400, 0.2776518531545665900 ) ) ;
#186 = ORIENTED_EDGE ( 'NONE', *, *, #157, .F. ) ;
#187 = CARTESIAN_POINT ( 'NONE',  ( -25.55436425331328100, -8.569583930954040700, 0.1818257507335371800 ) ) ;
#188 = CARTESIAN_POINT ( 'NONE',  ( 5.552888503326536500E-014, -25.39999999999923500, 0.2711065120759821300 ) ) ;
#189 = DIRECTION ( 'NONE',  ( -0.0000000000000000000, -0.0000000000000000000, -1.000000000000000000 ) ) ;
#190 = CARTESIAN_POINT ( 'NONE',  ( 9.992007221626412800E-016, 4.884981308350691100E-015, 0.2711065120760060000 ) ) ;
#191 = DATE_AND_TIME ( #229, #95 ) ;
#192 = CARTESIAN_POINT ( 'NONE',  ( 17.03208855208301700, 25.70475286704842000, 0.3690905031581953600 ) ) ;
#193 = EDGE_CURVE ( 'NONE', #86, #87, #132, .T. ) ;
#194 = DIRECTION ( 'NONE',  ( -0.0000000000000000000, -0.0000000000000000000, -1.000000000000000000 ) ) ;
#195 = CARTESIAN_POINT ( 'NONE',  ( 8.518939817662371200, 8.569583930954081600, -0.09256501595247070000 ) ) ;
#196 = CIRCLE ( 'NONE', #36, 1190.000000000000000 ) ;
#197 = APPLICATION_CONTEXT ( 'configuration controlled 3d designs of mechanical parts and assemblies' ) ;
#198 = CC_DESIGN_PERSON_AND_ORGANIZATION_ASSIGNMENT ( #115, #208, ( #128 ) ) ;
#199 = COORDINATED_UNIVERSAL_TIME_OFFSET ( 2, 0, .AHEAD. ) ;
#200 = ORIENTED_EDGE ( 'NONE', *, *, #145, .F. ) ;
#201 = DIRECTION ( 'NONE',  ( 1.000000000000000000, 0.0000000000000000000, 0.0000000000000000000 ) ) ;
#202 = AXIS2_PLACEMENT_3D ( 'NONE', #65, #189, #235 ) ;
#203 = PERSON_AND_ORGANIZATION ( #81, #165 ) ;
#204 = CARTESIAN_POINT ( 'NONE',  ( 8.516289725291324300, -25.70475286704836600, 0.2776518531544253100 ) ) ;
#205 = CC_DESIGN_DATE_AND_TIME_ASSIGNMENT ( #154, #134, ( #128 ) ) ;
#206 = DIRECTION ( 'NONE',  ( 1.000000000000000000, 0.0000000000000000000, 0.0000000000000000000 ) ) ;
#207 = PRODUCT ( '110-1565E UVFS pl-cx 50.8 F2500', '110-1565E UVFS pl-cx 50.8 F2500', '', ( #6 ) ) ;
#208 = PERSON_AND_ORGANIZATION_ROLE ( 'classification_officer' ) ;
#209 = PERSON_AND_ORGANIZATION ( #81, #165 ) ;
#210 = EDGE_LOOP ( 'NONE', ( #212, #228, #1, #39, #31 ) ) ;
#211 = AXIS2_PLACEMENT_3D ( 'NONE', #147, #79, #41 ) ;
#212 = ORIENTED_EDGE ( 'NONE', *, *, #32, .F. ) ;
#213 = AXIS2_PLACEMENT_3D ( 'NONE', #88, #38, #201 ) ;
#214 = PERSON_AND_ORGANIZATION ( #81, #165 ) ;
#215 = ORIENTED_EDGE ( 'NONE', *, *, #18, .F. ) ;
#216 = FACE_OUTER_BOUND ( 'NONE', #210, .T. ) ;
#217 = DIRECTION ( 'NONE',  ( 0.0000000000000000000, 0.0000000000000000000, 1.000000000000000000 ) ) ;
#218 = PERSON_AND_ORGANIZATION ( #81, #165 ) ;
#219 = CARTESIAN_POINT ( 'NONE',  ( -25.39999999999999900, 7.995584178184967200E-015, 6.000000000000000000 ) ) ;
#220 = CARTESIAN_POINT ( 'NONE',  ( 25.55436425331284400, 8.569583930954086900, 0.1818257507334782900 ) ) ;
#221 = CIRCLE ( 'NONE', #202, 25.39999999999999900 ) ;
#222 = CARTESIAN_POINT ( 'NONE',  ( 0.0000000000000000000, 0.0000000000000000000, 0.0000000000000000000 ) ) ;
#223 = LOCAL_TIME ( 15, 27, 50.00000000000000000, #107 ) ;
#224 = ORIENTED_EDGE ( 'NONE', *, *, #23, .T. ) ;
#225 = AXIS2_PLACEMENT_3D ( 'NONE', #25, #117, #98 ) ;
#226 = VERTEX_POINT ( 'NONE', #130 ) ;
#227 = APPROVAL_PERSON_ORGANIZATION ( #218, #118, #119 ) ;
#228 = ORIENTED_EDGE ( 'NONE', *, *, #100, .F. ) ;
#229 = CALENDAR_DATE ( 2018, 14, 12 ) ;
#230 = ORIENTED_EDGE ( 'NONE', *, *, #32, .T. ) ;
#231 = AXIS2_PLACEMENT_3D ( 'NONE', #222, #21, #46 ) ;
#232 = DIRECTION ( 'NONE',  ( 1.000000000000000000, 3.907035426935399900E-016, -5.722465264600830200E-017 ) ) ;
#233 = CARTESIAN_POINT ( 'NONE',  ( 9.992007221626412800E-016, 4.884981308350691100E-015, 0.2711065120760060000 ) ) ;
#234 = CC_DESIGN_PERSON_AND_ORGANIZATION_ASSIGNMENT ( #214, #121, ( #14 ) ) ;
#235 = DIRECTION ( 'NONE',  ( 1.000000000000000000, 0.0000000000000000000, 0.0000000000000000000 ) ) ;
ENDSEC;
END-ISO-10303-21;
