ISO-10303-21;
HEADER;
FILE_DESCRIPTION (( 'STEP AP203' ),
    '1' );
FILE_NAME ('110-1564E UVFS pl-cx 50.8 F3000.STEP',
    '2018-12-14T13:27:26',
    ( '' ),
    ( '' ),
    'SwSTEP 2.0',
    'SolidWorks 2017',
    '' );
FILE_SCHEMA (( 'CONFIG_CONTROL_DESIGN' ));
ENDSEC;

DATA;
#1 = ORIENTED_EDGE ( 'NONE', *, *, #134, .T. ) ;
#2 = LOCAL_TIME ( 15, 27, 26.00000000000000000, #218 ) ;
#3 = COORDINATED_UNIVERSAL_TIME_OFFSET ( 2, 0, .AHEAD. ) ;
#4 = ORIENTED_EDGE ( 'NONE', *, *, #22, .T. ) ;
#5 = PRODUCT_DEFINITION_FORMATION_WITH_SPECIFIED_SOURCE ( 'ANY', '', #96, .NOT_KNOWN. ) ;
#6 = DATE_AND_TIME ( #112, #144 ) ;
#7 = CARTESIAN_POINT ( 'NONE',  ( 0.0000000000000000000, 0.0000000000000000000, 1428.000000000000000 ) ) ;
#8 = DIRECTION ( 'NONE',  ( -3.255862855779501300E-016, -1.000000000000000000, -3.109868416316964900E-016 ) ) ;
#9 = CARTESIAN_POINT ( 'NONE',  ( 9.992007221626412800E-016, 4.884981308350691100E-015, 0.2259142287250499900 ) ) ;
#10 = DIRECTION ( 'NONE',  ( 0.0000000000000000000, 0.0000000000000000000, 1.000000000000000000 ) ) ;
#11 = ORIENTED_EDGE ( 'NONE', *, *, #137, .F. ) ;
#12 = APPLICATION_PROTOCOL_DEFINITION ( 'international standard', 'config_control_design', 1994, #120 ) ;
#13 = ORIENTED_EDGE ( 'NONE', *, *, #137, .T. ) ;
#14 = APPROVAL_STATUS ( 'not_yet_approved' ) ;
#15 = DIRECTION ( 'NONE',  ( 1.000000000000000000, 0.0000000000000000000, 0.0000000000000000000 ) ) ;
#16 = ORIENTED_EDGE ( 'NONE', *, *, #225, .T. ) ;
#17 = VERTEX_POINT ( 'NONE', #189 ) ;
#18 = CC_DESIGN_DATE_AND_TIME_ASSIGNMENT ( #25, #161, ( #127 ) ) ;
#19 = CIRCLE ( 'NONE', #158, 25.39999999999999900 ) ;
#20 = PRODUCT_DEFINITION_SHAPE ( 'NONE', 'NONE',  #121 ) ;
#21 = PERSON_AND_ORGANIZATION ( #33, #34 ) ;
#22 = EDGE_CURVE ( 'NONE', #146, #173, #92, .T. ) ;
#23 = DIRECTION ( 'NONE',  ( 0.0000000000000000000, 0.0000000000000000000, 1.000000000000000000 ) ) ;
#24 = PLANE ( 'NONE',  #186 ) ;
#25 = DATE_AND_TIME ( #182, #63 ) ;
#26 = APPROVAL_DATE_TIME ( #6, #203 ) ;
#27 = CARTESIAN_POINT ( 'NONE',  ( -17.03663822527343500, -8.569181358689840900, -0.0009139459689738174100 ) ) ;
#28 = CARTESIAN_POINT ( 'NONE',  ( -25.54824371213582200, -25.70476727060071600, 0.4599647705885168100 ) ) ;
#29 = APPROVAL ( #103, 'UNSPECIFIED' ) ;
#30 = CARTESIAN_POINT ( 'NONE',  ( 0.0000000000000000000, 0.0000000000000000000, 0.0000000000000000000 ) ) ;
#31 = AXIS2_PLACEMENT_3D ( 'NONE', #124, #153, #178 ) ;
#32 = SECURITY_CLASSIFICATION_LEVEL ( 'unclassified' ) ;
#33 = PERSON ( 'UNSPECIFIED', 'UNSPECIFIED', 'UNSPECIFIED', ('UNSPECIFIED'), ('UNSPECIFIED'), ('UNSPECIFIED') ) ;
#34 = ORGANIZATION ( 'UNSPECIFIED', 'UNSPECIFIED', '' ) ;
#35 = ORIENTED_EDGE ( 'NONE', *, *, #164, .T. ) ;
#36 = ORIENTED_EDGE ( 'NONE', *, *, #53, .F. ) ;
#37 = CARTESIAN_POINT ( 'NONE',  ( 17.03295789295383900, 25.70476727060080100, 0.3075693266653147800 ) ) ;
#38 = CARTESIAN_POINT ( 'NONE',  ( 17.03295789295382400, -25.70476727060072600, 0.3075693266653147800 ) ) ;
#39 = CARTESIAN_POINT ( 'NONE',  ( -8.518489600122094900, -8.569181358689842700, -0.07713118286239559200 ) ) ;
#40 = APPROVAL ( #154, 'UNSPECIFIED' ) ;
#41 = DIRECTION ( 'NONE',  ( 1.000000000000000000, 0.0000000000000000000, 0.0000000000000000000 ) ) ;
#42 = ORIENTED_EDGE ( 'NONE', *, *, #53, .T. ) ;
#43 = ADVANCED_FACE ( 'NONE', ( #106 ), #74, .T. ) ;
#44 = CARTESIAN_POINT ( 'NONE',  ( -1.217775880135718600E-012, 25.70476727060080400, 0.2313685545671398400 ) ) ;
#45 = CYLINDRICAL_SURFACE ( 'NONE', #88, 25.39999999999999900 ) ;
#46 = ADVANCED_FACE ( 'NONE', ( #198 ), #45, .T. ) ;
#47 = CARTESIAN_POINT ( 'NONE',  ( -17.03295789295494300, 25.70476727060080800, 0.3075693266653167800 ) ) ;
#48 = DIRECTION ( 'NONE',  ( 1.000000000000000000, 0.0000000000000000000, 0.0000000000000000000 ) ) ;
#49 = MECHANICAL_CONTEXT ( 'NONE', #120, 'mechanical' ) ;
#50 = AXIS2_PLACEMENT_3D ( 'NONE', #82, #138, #214 ) ;
#51 = ORIENTED_EDGE ( 'NONE', *, *, #145, .F. ) ;
#52 = CARTESIAN_POINT ( 'NONE',  ( 9.992007221626412800E-016, 4.884981308350691100E-015, 6.000000000000000000 ) ) ;
#53 = EDGE_CURVE ( 'NONE', #17, #89, #78, .T. ) ;
#54 = APPROVAL_PERSON_ORGANIZATION ( #216, #40, #156 ) ;
#55 = COORDINATED_UNIVERSAL_TIME_OFFSET ( 2, 0, .AHEAD. ) ;
#56 = CC_DESIGN_APPROVAL ( #40, ( #5 ) ) ;
#57 = VECTOR ( 'NONE', #91, 1000.000000000000000 ) ;
#58 = CARTESIAN_POINT ( 'NONE',  ( 17.03663822527231600, 8.569181358689922600, -0.0009139459689768532800 ) ) ;
#59 = APPROVAL_DATE_TIME ( #71, #40 ) ;
#60 = AXIS2_PLACEMENT_3D ( 'NONE', #30, #139, #232 ) ;
#61 = DIRECTION ( 'NONE',  ( 0.0000000000000000000, 0.0000000000000000000, 1.000000000000000000 ) ) ;
#62 = ORIENTED_EDGE ( 'NONE', *, *, #215, .F. ) ;
#63 = LOCAL_TIME ( 15, 27, 26.00000000000000000, #55 ) ;
#64 = CARTESIAN_POINT ( 'NONE',  ( -25.39999999999999900, 7.995584178184967200E-015, 0.2259142287250499900 ) ) ;
#65 = CARTESIAN_POINT ( 'NONE',  ( -1.221245327087672200E-012, 8.569181358689926100, -0.07713118286240384900 ) ) ;
#66 = ORIENTED_EDGE ( 'NONE', *, *, #155, .T. ) ;
#67 = VECTOR ( 'NONE', #61, 1000.000000000000000 ) ;
#68 = PERSON_AND_ORGANIZATION_ROLE ( 'design_supplier' ) ;
#69 = CC_DESIGN_PERSON_AND_ORGANIZATION_ASSIGNMENT ( #199, #179, ( #5 ) ) ;
#70 = UNCERTAINTY_MEASURE_WITH_UNIT (LENGTH_MEASURE( 1.000000000000000100E-005 ), #230, 'distance_accuracy_value', 'NONE');
#71 = DATE_AND_TIME ( #219, #118 ) ;
#72 = CIRCLE ( 'NONE', #50, 25.39999999999999900 ) ;
#73 = DATE_AND_TIME ( #126, #175 ) ;
#74 =( BOUNDED_SURFACE ( )  B_SPLINE_SURFACE ( 3, 3, ( 
 ( #75, #110, #38, #165 ),
 ( #192, #76, #204, #223 ),
 ( #168, #111, #58, #107 ),
 ( #191, #206, #37, #224 ) ),
 .UNSPECIFIED., .F., .F., .F. ) 
 B_SPLINE_SURFACE_WITH_KNOTS ( ( 4, 4 ),
 ( 4, 4 ),
 ( 0.0000000000000000000, 1.000000000000000000 ),
 ( 0.0000000000000000000, 1.000000000000000000 ),
 .UNSPECIFIED. ) 
 GEOMETRIC_REPRESENTATION_ITEM ( )  RATIONAL_B_SPLINE_SURFACE ( (
 ( 1.000000000000000000, 0.9999733149117954200, 0.9999733149117954200, 1.000000000000000000),
 ( 0.9998919848017893100, 0.9998653025959798300, 0.9998653025959798300, 0.9998919848017893100),
 ( 0.9998919848017893100, 0.9998653025959798300, 0.9998653025959798300, 0.9998919848017893100),
 ( 1.000000000000000000, 0.9999733149117954200, 0.9999733149117954200, 1.000000000000000000) ) ) 
 REPRESENTATION_ITEM ( '' )  SURFACE ( )  );
#75 = CARTESIAN_POINT ( 'NONE',  ( -8.799259766748001900E-013, -25.70476727060072300, 0.2313685545671795300 ) ) ;
#76 = CARTESIAN_POINT ( 'NONE',  ( 8.518489600120482000, -8.569181358689848000, -0.07713118286236839100 ) ) ;
#77 = CC_DESIGN_PERSON_AND_ORGANIZATION_ASSIGNMENT ( #21, #98, ( #121 ) ) ;
#78 = CIRCLE ( 'NONE', #169, 1428.000000000000000 ) ;
#79 =( BOUNDED_SURFACE ( )  B_SPLINE_SURFACE ( 3, 3, ( 
 ( #28, #135, #194, #133 ),
 ( #115, #27, #39, #149 ),
 ( #95, #171, #151, #65 ),
 ( #229, #47, #208, #44 ) ),
 .UNSPECIFIED., .F., .F., .F. ) 
 B_SPLINE_SURFACE_WITH_KNOTS ( ( 4, 4 ),
 ( 4, 4 ),
 ( 0.0000000000000000000, 1.000000000000000000 ),
 ( 0.0000000000000000000, 1.000000000000000000 ),
 .UNSPECIFIED. ) 
 GEOMETRIC_REPRESENTATION_ITEM ( )  RATIONAL_B_SPLINE_SURFACE ( (
 ( 1.000000000000000000, 0.9999733149117954200, 0.9999733149117954200, 1.000000000000000000),
 ( 0.9998919848017893100, 0.9998653025959798300, 0.9998653025959798300, 0.9998919848017893100),
 ( 0.9998919848017893100, 0.9998653025959798300, 0.9998653025959798300, 0.9998919848017893100),
 ( 1.000000000000000000, 0.9999733149117954200, 0.9999733149117954200, 1.000000000000000000) ) ) 
 REPRESENTATION_ITEM ( '' )  SURFACE ( )  );
#80 = APPROVAL_ROLE ( '' ) ;
#81 = ADVANCED_FACE ( 'NONE', ( #205 ), #97, .T. ) ;
#82 = CARTESIAN_POINT ( 'NONE',  ( 9.992007221626412800E-016, 4.884981308350691100E-015, 0.2259142287250499900 ) ) ;
#83 = EDGE_LOOP ( 'NONE', ( #180, #4, #227, #51, #11 ) ) ;
#84 = EDGE_LOOP ( 'NONE', ( #234, #62 ) ) ;
#85 = CC_DESIGN_PERSON_AND_ORGANIZATION_ASSIGNMENT ( #90, #68, ( #5 ) ) ;
#86 = PERSON_AND_ORGANIZATION ( #33, #34 ) ;
#87 = APPROVAL_PERSON_ORGANIZATION ( #86, #29, #217 ) ;
#88 = AXIS2_PLACEMENT_3D ( 'NONE', #176, #10, #41 ) ;
#89 = VERTEX_POINT ( 'NONE', #150 ) ;
#90 = PERSON_AND_ORGANIZATION ( #33, #34 ) ;
#91 = DIRECTION ( 'NONE',  ( 0.0000000000000000000, 0.0000000000000000000, 1.000000000000000000 ) ) ;
#92 = LINE ( 'NONE', #167, #67 ) ;
#93 = DIRECTION ( 'NONE',  ( 1.000000000000000000, -3.255862855779499800E-016, -6.104328374935509900E-016 ) ) ;
#94 = DIRECTION ( 'NONE',  ( 1.000000000000000000, 0.0000000000000000000, -0.0000000000000000000 ) ) ;
#95 = CARTESIAN_POINT ( 'NONE',  ( -25.55376395281304300, 8.569181358689933200, 0.1515144262266359700 ) ) ;
#96 = PRODUCT ( '110-1564E UVFS pl-cx 50.8 F3000', '110-1564E UVFS pl-cx 50.8 F3000', '', ( #49 ) ) ;
#97 = CYLINDRICAL_SURFACE ( 'NONE', #108, 25.39999999999999900 ) ;
#98 = PERSON_AND_ORGANIZATION_ROLE ( 'creator' ) ;
#99 = EDGE_LOOP ( 'NONE', ( #36, #66, #1 ) ) ;
#100 = PERSON_AND_ORGANIZATION_ROLE ( 'design_owner' ) ;
#101 = FACE_OUTER_BOUND ( 'NONE', #99, .T. ) ;
#102 = AXIS2_PLACEMENT_3D ( 'NONE', #9, #113, #130 ) ;
#103 = APPROVAL_STATUS ( 'not_yet_approved' ) ;
#104 = PRODUCT_RELATED_PRODUCT_CATEGORY ( 'detail', '', ( #96 ) ) ;
#105 = ORIENTED_EDGE ( 'NONE', *, *, #145, .T. ) ;
#106 = FACE_OUTER_BOUND ( 'NONE', #143, .T. ) ;
#107 = CARTESIAN_POINT ( 'NONE',  ( 25.55376395281241400, 8.569181358689919000, 0.1515144262266389100 ) ) ;
#108 = AXIS2_PLACEMENT_3D ( 'NONE', #174, #136, #193 ) ;
#109 = FACE_OUTER_BOUND ( 'NONE', #84, .T. ) ;
#110 = CARTESIAN_POINT ( 'NONE',  ( 8.516649397131749000, -25.70476727060072600, 0.2313685545671743100 ) ) ;
#111 = CARTESIAN_POINT ( 'NONE',  ( 8.518489600120487300, 8.569181358689924400, -0.07713118286236941800 ) ) ;
#112 = CALENDAR_DATE ( 2018, 14, 12 ) ;
#113 = DIRECTION ( 'NONE',  ( -0.0000000000000000000, -0.0000000000000000000, -1.000000000000000000 ) ) ;
#114 = ADVANCED_FACE ( 'NONE', ( #101 ), #79, .T. ) ;
#115 = CARTESIAN_POINT ( 'NONE',  ( -25.55376395281304600, -8.569181358689837300, 0.1515144262266369900 ) ) ;
#116 = CARTESIAN_POINT ( 'NONE',  ( 25.39999999999999900, 4.884981308350691100E-015, 0.2259142287250499900 ) ) ;
#117 = MANIFOLD_SOLID_BREP ( 'Imported1', #141 ) ;
#118 = LOCAL_TIME ( 15, 27, 26.00000000000000000, #166 ) ;
#119 = CC_DESIGN_APPROVAL ( #29, ( #127 ) ) ;
#120 = APPLICATION_CONTEXT ( 'configuration controlled 3d designs of mechanical parts and assemblies' ) ;
#121 = PRODUCT_DEFINITION ( 'UNKNOWN', '', #5, #160 ) ;
#122 = APPLICATION_PROTOCOL_DEFINITION ( 'international standard', 'config_control_design', 1994, #196 ) ;
#123 =( NAMED_UNIT ( * ) SI_UNIT ( $, .STERADIAN. ) SOLID_ANGLE_UNIT ( ) );
#124 = CARTESIAN_POINT ( 'NONE',  ( 9.992007221626412800E-016, 4.884981308350691100E-015, 6.000000000000000000 ) ) ;
#125 = APPROVAL_DATE_TIME ( #132, #29 ) ;
#126 = CALENDAR_DATE ( 2018, 14, 12 ) ;
#127 = SECURITY_CLASSIFICATION ( '', '', #32 ) ;
#128 = CIRCLE ( 'NONE', #181, 25.39999999999999900 ) ;
#129 = CC_DESIGN_DATE_AND_TIME_ASSIGNMENT ( #73, #231, ( #121 ) ) ;
#130 = DIRECTION ( 'NONE',  ( 1.000000000000000000, 1.776356839400250500E-015, 0.0000000000000000000 ) ) ;
#131 = VERTEX_POINT ( 'NONE', #116 ) ;
#132 = DATE_AND_TIME ( #187, #2 ) ;
#133 = CARTESIAN_POINT ( 'NONE',  ( -1.231653667943533000E-012, -25.70476727060072300, 0.2313685545671398900 ) ) ;
#134 = EDGE_CURVE ( 'NONE', #146, #89, #19, .T. ) ;
#135 = CARTESIAN_POINT ( 'NONE',  ( -17.03295789295495800, -25.70476727060071900, 0.3075693266653167800 ) ) ;
#136 = DIRECTION ( 'NONE',  ( 0.0000000000000000000, 0.0000000000000000000, 1.000000000000000000 ) ) ;
#137 = EDGE_CURVE ( 'NONE', #89, #131, #235, .T. ) ;
#138 = DIRECTION ( 'NONE',  ( -0.0000000000000000000, -0.0000000000000000000, -1.000000000000000000 ) ) ;
#139 = DIRECTION ( 'NONE',  ( 0.0000000000000000000, 0.0000000000000000000, 1.000000000000000000 ) ) ;
#140 = ADVANCED_FACE ( 'NONE', ( #109 ), #24, .T. ) ;
#141 = CLOSED_SHELL ( 'NONE', ( #43, #46, #114, #81, #140 ) ) ;
#142 = CC_DESIGN_PERSON_AND_ORGANIZATION_ASSIGNMENT ( #157, #184, ( #127 ) ) ;
#143 = EDGE_LOOP ( 'NONE', ( #16, #42, #13 ) ) ;
#144 = LOCAL_TIME ( 15, 27, 26.00000000000000000, #148 ) ;
#145 = EDGE_CURVE ( 'NONE', #131, #162, #188, .T. ) ;
#146 = VERTEX_POINT ( 'NONE', #64 ) ;
#147 = CARTESIAN_POINT ( 'NONE',  ( 25.39999999999999900, 4.884981308350691100E-015, 6.000000000000000000 ) ) ;
#148 = COORDINATED_UNIVERSAL_TIME_OFFSET ( 2, 0, .AHEAD. ) ;
#149 = CARTESIAN_POINT ( 'NONE',  ( -1.224714774039625800E-012, -8.569181358689846200, -0.07713118286240287800 ) ) ;
#150 = CARTESIAN_POINT ( 'NONE',  ( -8.632902948234403400E-013, 25.39999999999923800, 0.2259142287250690600 ) ) ;
#151 = CARTESIAN_POINT ( 'NONE',  ( -8.518489600122091300, 8.569181358689929700, -0.07713118286239655000 ) ) ;
#152 = DIRECTION ( 'NONE',  ( -0.0000000000000000000, -0.0000000000000000000, -1.000000000000000000 ) ) ;
#153 = DIRECTION ( 'NONE',  ( -0.0000000000000000000, -0.0000000000000000000, -1.000000000000000000 ) ) ;
#154 = APPROVAL_STATUS ( 'not_yet_approved' ) ;
#155 = EDGE_CURVE ( 'NONE', #17, #146, #128, .T. ) ;
#156 = APPROVAL_ROLE ( '' ) ;
#157 = PERSON_AND_ORGANIZATION ( #33, #34 ) ;
#158 = AXIS2_PLACEMENT_3D ( 'NONE', #211, #226, #195 ) ;
#159 = CIRCLE ( 'NONE', #31, 25.39999999999999900 ) ;
#160 = DESIGN_CONTEXT ( 'detailed design', #196, 'design' ) ;
#161 = DATE_TIME_ROLE ( 'classification_date' ) ;
#162 = VERTEX_POINT ( 'NONE', #147 ) ;
#163 = APPROVAL_PERSON_ORGANIZATION ( #202, #203, #80 ) ;
#164 = EDGE_CURVE ( 'NONE', #162, #173, #159, .T. ) ;
#165 = CARTESIAN_POINT ( 'NONE',  ( 25.54824371213517500, -25.70476727060073000, 0.4599647705885197600 ) ) ;
#166 = COORDINATED_UNIVERSAL_TIME_OFFSET ( 2, 0, .AHEAD. ) ;
#167 = CARTESIAN_POINT ( 'NONE',  ( -25.39999999999999900, 7.995584178184967200E-015, 0.2259142287250499900 ) ) ;
#168 = CARTESIAN_POINT ( 'NONE',  ( -8.689551674185852600E-013, 8.569181358689926100, -0.07713118286236422800 ) ) ;
#169 = AXIS2_PLACEMENT_3D ( 'NONE', #7, #93, #8 ) ;
#170 = CARTESIAN_POINT ( 'NONE',  ( 0.0000000000000000000, 52.02000000000000300, 6.000000000000000000 ) ) ;
#171 = CARTESIAN_POINT ( 'NONE',  ( -17.03663822527343200, 8.569181358689931500, -0.0009139459689748744000 ) ) ;
#172 = CARTESIAN_POINT ( 'NONE',  ( -25.39999999999999900, 7.995584178184967200E-015, 6.000000000000000000 ) ) ;
#173 = VERTEX_POINT ( 'NONE', #172 ) ;
#174 = CARTESIAN_POINT ( 'NONE',  ( 9.992007221626412800E-016, 4.884981308350691100E-015, 0.2259142287250499900 ) ) ;
#175 = LOCAL_TIME ( 15, 27, 26.00000000000000000, #3 ) ;
#176 = CARTESIAN_POINT ( 'NONE',  ( 9.992007221626412800E-016, 4.884981308350691100E-015, 0.2259142287250499900 ) ) ;
#177 = DIRECTION ( 'NONE',  ( -0.0000000000000000000, -0.0000000000000000000, -1.000000000000000000 ) ) ;
#178 = DIRECTION ( 'NONE',  ( 1.000000000000000000, 0.0000000000000000000, 0.0000000000000000000 ) ) ;
#179 = PERSON_AND_ORGANIZATION_ROLE ( 'creator' ) ;
#180 = ORIENTED_EDGE ( 'NONE', *, *, #134, .F. ) ;
#181 = AXIS2_PLACEMENT_3D ( 'NONE', #197, #177, #15 ) ;
#182 = CALENDAR_DATE ( 2018, 14, 12 ) ;
#183 = SHAPE_DEFINITION_REPRESENTATION ( #20, #221 ) ;
#184 = PERSON_AND_ORGANIZATION_ROLE ( 'classification_officer' ) ;
#185 = CC_DESIGN_SECURITY_CLASSIFICATION ( #127, ( #5 ) ) ;
#186 = AXIS2_PLACEMENT_3D ( 'NONE', #170, #23, #94 ) ;
#187 = CALENDAR_DATE ( 2018, 14, 12 ) ;
#188 = LINE ( 'NONE', #210, #57 ) ;
#189 = CARTESIAN_POINT ( 'NONE',  ( -8.798300781307996000E-013, -25.39999999999923500, 0.2259142287250690600 ) ) ;
#190 = CC_DESIGN_PERSON_AND_ORGANIZATION_ASSIGNMENT ( #222, #100, ( #96 ) ) ;
#191 = CARTESIAN_POINT ( 'NONE',  ( -8.631877372802390400E-013, 25.70476727060080400, 0.2313685545671795300 ) ) ;
#192 = CARTESIAN_POINT ( 'NONE',  ( -8.745351832766244800E-013, -8.569181358689844400, -0.07713118286236320100 ) ) ;
#193 = DIRECTION ( 'NONE',  ( 1.000000000000000000, 0.0000000000000000000, 0.0000000000000000000 ) ) ;
#194 = CARTESIAN_POINT ( 'NONE',  ( -8.516649397133372500, -25.70476727060071900, 0.2313685545671471900 ) ) ;
#195 = DIRECTION ( 'NONE',  ( 1.000000000000000000, -8.881784197001252300E-016, 0.0000000000000000000 ) ) ;
#196 = APPLICATION_CONTEXT ( 'configuration controlled 3d designs of mechanical parts and assemblies' ) ;
#197 = CARTESIAN_POINT ( 'NONE',  ( 9.992007221626412800E-016, 4.884981308350691100E-015, 0.2259142287250499900 ) ) ;
#198 = FACE_OUTER_BOUND ( 'NONE', #83, .T. ) ;
#199 = PERSON_AND_ORGANIZATION ( #33, #34 ) ;
#200 = AXIS2_PLACEMENT_3D ( 'NONE', #52, #152, #48 ) ;
#201 = ORIENTED_EDGE ( 'NONE', *, *, #225, .F. ) ;
#202 = PERSON_AND_ORGANIZATION ( #33, #34 ) ;
#203 = APPROVAL ( #14, 'UNSPECIFIED' ) ;
#204 = CARTESIAN_POINT ( 'NONE',  ( 17.03663822527230900, -8.569181358689849800, -0.0009139459689758230700 ) ) ;
#205 = FACE_OUTER_BOUND ( 'NONE', #220, .T. ) ;
#206 = CARTESIAN_POINT ( 'NONE',  ( 8.516649397131764900, 25.70476727060080100, 0.2313685545671743100 ) ) ;
#207 = ORIENTED_EDGE ( 'NONE', *, *, #22, .F. ) ;
#208 = CARTESIAN_POINT ( 'NONE',  ( -8.516649397133358300, 25.70476727060080800, 0.2313685545671471700 ) ) ;
#209 = ORIENTED_EDGE ( 'NONE', *, *, #155, .F. ) ;
#210 = CARTESIAN_POINT ( 'NONE',  ( 25.39999999999999900, 4.884981308350691100E-015, 0.2259142287250499900 ) ) ;
#211 = CARTESIAN_POINT ( 'NONE',  ( 9.992007221626412800E-016, 4.884981308350691100E-015, 0.2259142287250499900 ) ) ;
#212 =( NAMED_UNIT ( * ) PLANE_ANGLE_UNIT ( ) SI_UNIT ( $, .RADIAN. ) );
#213 = CIRCLE ( 'NONE', #200, 25.39999999999999900 ) ;
#214 = DIRECTION ( 'NONE',  ( 1.000000000000000000, 0.0000000000000000000, 0.0000000000000000000 ) ) ;
#215 = EDGE_CURVE ( 'NONE', #173, #162, #213, .T. ) ;
#216 = PERSON_AND_ORGANIZATION ( #33, #34 ) ;
#217 = APPROVAL_ROLE ( '' ) ;
#218 = COORDINATED_UNIVERSAL_TIME_OFFSET ( 2, 0, .AHEAD. ) ;
#219 = CALENDAR_DATE ( 2018, 14, 12 ) ;
#220 = EDGE_LOOP ( 'NONE', ( #207, #209, #201, #105, #35 ) ) ;
#221 = ADVANCED_BREP_SHAPE_REPRESENTATION ( '110-1564E UVFS pl-cx 50.8 F3000', ( #117, #60 ), #233 ) ;
#222 = PERSON_AND_ORGANIZATION ( #33, #34 ) ;
#223 = CARTESIAN_POINT ( 'NONE',  ( 25.55376395281240700, -8.569181358689851500, 0.1515144262266399400 ) ) ;
#224 = CARTESIAN_POINT ( 'NONE',  ( 25.54824371213518900, 25.70476727060079700, 0.4599647705885197600 ) ) ;
#225 = EDGE_CURVE ( 'NONE', #131, #17, #72, .T. ) ;
#226 = DIRECTION ( 'NONE',  ( -0.0000000000000000000, -0.0000000000000000000, -1.000000000000000000 ) ) ;
#227 = ORIENTED_EDGE ( 'NONE', *, *, #215, .T. ) ;
#228 = CC_DESIGN_APPROVAL ( #203, ( #121 ) ) ;
#229 = CARTESIAN_POINT ( 'NONE',  ( -25.54824371213580700, 25.70476727060081100, 0.4599647705885168100 ) ) ;
#230 =( LENGTH_UNIT ( ) NAMED_UNIT ( * ) SI_UNIT ( .MILLI., .METRE. ) );
#231 = DATE_TIME_ROLE ( 'creation_date' ) ;
#232 = DIRECTION ( 'NONE',  ( 1.000000000000000000, 0.0000000000000000000, 0.0000000000000000000 ) ) ;
#233 =( GEOMETRIC_REPRESENTATION_CONTEXT ( 3 ) GLOBAL_UNCERTAINTY_ASSIGNED_CONTEXT ( ( #70 ) ) GLOBAL_UNIT_ASSIGNED_CONTEXT ( ( #230, #212, #123 ) ) REPRESENTATION_CONTEXT ( 'NONE', 'WORKASPACE' ) );
#234 = ORIENTED_EDGE ( 'NONE', *, *, #164, .F. ) ;
#235 = CIRCLE ( 'NONE', #102, 25.39999999999999900 ) ;
ENDSEC;
END-ISO-10303-21;
