ISO-10303-21;
HEADER;
FILE_DESCRIPTION (( 'STEP AP203' ),
    '1' );
FILE_NAME ('110-1555E UVFS pl-cx 50.8 F2000.STEP',
    '2018-12-13T15:08:45',
    ( '' ),
    ( '' ),
    'SwSTEP 2.0',
    'SolidWorks 2017',
    '' );
FILE_SCHEMA (( 'CONFIG_CONTROL_DESIGN' ));
ENDSEC;

DATA;
#1 = CARTESIAN_POINT ( 'NONE',  ( -5.431008416306755900E-013, 25.70472636270993400, 0.3470504155933529200 ) ) ;
#2 = CARTESIAN_POINT ( 'NONE',  ( -7.840950111415166000E-013, 8.570324769625919700, -0.1157115905882451500 ) ) ;
#3 =( NAMED_UNIT ( * ) SI_UNIT ( $, .STERADIAN. ) SOLID_ANGLE_UNIT ( ) );
#4 = CARTESIAN_POINT ( 'NONE',  ( -25.55546896474354300, 8.570324769625926800, 0.2272777277613290400 ) ) ;
#5 = ORIENTED_EDGE ( 'NONE', *, *, #197, .F. ) ;
#6 = PERSON ( 'UNSPECIFIED', 'UNSPECIFIED', 'UNSPECIFIED', ('UNSPECIFIED'), ('UNSPECIFIED'), ('UNSPECIFIED') ) ;
#7 = APPROVAL_ROLE ( '' ) ;
#8 = ORIENTED_EDGE ( 'NONE', *, *, #100, .T. ) ;
#9 = CC_DESIGN_PERSON_AND_ORGANIZATION_ASSIGNMENT ( #51, #50, ( #182 ) ) ;
#10 = APPROVAL_STATUS ( 'not_yet_approved' ) ;
#11 = AXIS2_PLACEMENT_3D ( 'NONE', #159, #60, #221 ) ;
#12 = COORDINATED_UNIVERSAL_TIME_OFFSET ( 2, 0, .AHEAD. ) ;
#13 = ORIENTED_EDGE ( 'NONE', *, *, #38, .T. ) ;
#14 = CARTESIAN_POINT ( 'NONE',  ( -25.39999999999999900, 7.995584178184967200E-015, 0.3388692534244870400 ) ) ;
#15 = LOCAL_TIME ( 17, 8, 45.00000000000000000, #68 ) ;
#16 = CARTESIAN_POINT ( 'NONE',  ( 8.519768346206921800, 8.570324769625917900, -0.1157115905883221200 ) ) ;
#17 = ORIENTED_EDGE ( 'NONE', *, *, #100, .F. ) ;
#18 = CARTESIAN_POINT ( 'NONE',  ( -25.54304940482337100, -25.70472636270968500, 0.6898730464759417200 ) ) ;
#19 = CARTESIAN_POINT ( 'NONE',  ( 25.54304940482317600, -25.70472636270970000, 0.6898730464758866500 ) ) ;
#20 = CIRCLE ( 'NONE', #112, 952.1000000000000200 ) ;
#21 = CARTESIAN_POINT ( 'NONE',  ( 17.03048887340757000, -25.70472636270969200, 0.4613314868944850000 ) ) ;
#22 = CARTESIAN_POINT ( 'NONE',  ( -17.03048887340813900, 25.70472636270993400, 0.4613314868945508900 ) ) ;
#23 = CC_DESIGN_PERSON_AND_ORGANIZATION_ASSIGNMENT ( #204, #134, ( #182 ) ) ;
#24 = CARTESIAN_POINT ( 'NONE',  ( -17.03876945000185100, -8.570324769625672800, -0.001374953462138727400 ) ) ;
#25 = CARTESIAN_POINT ( 'NONE',  ( 9.992007221626412800E-016, 4.884981308350691100E-015, 6.000000000000000000 ) ) ;
#26 = APPROVAL_DATE_TIME ( #213, #219 ) ;
#27 = ORIENTED_EDGE ( 'NONE', *, *, #231, .F. ) ;
#28 = APPLICATION_CONTEXT ( 'configuration controlled 3d designs of mechanical parts and assemblies' ) ;
#29 = EDGE_CURVE ( 'NONE', #118, #205, #102, .T. ) ;
#30 = APPLICATION_PROTOCOL_DEFINITION ( 'international standard', 'config_control_design', 1994, #28 ) ;
#31 = CC_DESIGN_APPROVAL ( #84, ( #48 ) ) ;
#32 = CALENDAR_DATE ( 2018, 13, 12 ) ;
#33 = APPROVAL_STATUS ( 'not_yet_approved' ) ;
#34 = ORGANIZATION ( 'UNSPECIFIED', 'UNSPECIFIED', '' ) ;
#35 = ORIENTED_EDGE ( 'NONE', *, *, #36, .T. ) ;
#36 = EDGE_CURVE ( 'NONE', #141, #149, #20, .T. ) ;
#37 = AXIS2_PLACEMENT_3D ( 'NONE', #25, #81, #142 ) ;
#38 = EDGE_CURVE ( 'NONE', #40, #141, #146, .T. ) ;
#39 = CARTESIAN_POINT ( 'NONE',  ( -5.516814190925305600E-013, -8.570324769625676400, -0.1157115905883199200 ) ) ;
#40 = VERTEX_POINT ( 'NONE', #226 ) ;
#41 = DIRECTION ( 'NONE',  ( 1.000000000000000000, 0.0000000000000000000, 0.0000000000000000000 ) ) ;
#42 = COORDINATED_UNIVERSAL_TIME_OFFSET ( 2, 0, .AHEAD. ) ;
#43 = UNCERTAINTY_MEASURE_WITH_UNIT (LENGTH_MEASURE( 1.000000000000000100E-005 ), #199, 'distance_accuracy_value', 'NONE');
#44 = FACE_OUTER_BOUND ( 'NONE', #144, .T. ) ;
#45 = SECURITY_CLASSIFICATION_LEVEL ( 'unclassified' ) ;
#46 =( BOUNDED_SURFACE ( )  B_SPLINE_SURFACE ( 3, 3, ( 
 ( #18, #234, #235, #57 ),
 ( #194, #24, #163, #95 ),
 ( #4, #201, #178, #2 ),
 ( #62, #22, #65, #177 ) ),
 .UNSPECIFIED., .F., .F., .F. ) 
 B_SPLINE_SURFACE_WITH_KNOTS ( ( 4, 4 ),
 ( 4, 4 ),
 ( 0.0000000000000000000, 1.000000000000000000 ),
 ( 0.0000000000000000000, 1.000000000000000000 ),
 .UNSPECIFIED. ) 
 GEOMETRIC_REPRESENTATION_ITEM ( )  RATIONAL_B_SPLINE_SURFACE ( (
 ( 1.000000000000000000, 0.9999399637500351300, 0.9999399637500351300, 1.000000000000000000),
 ( 0.9997569930220261400, 0.9996969713612889900, 0.9996969713612889900, 0.9997569930220261400),
 ( 0.9997569930220261400, 0.9996969713612889900, 0.9996969713612889900, 0.9997569930220261400),
 ( 1.000000000000000000, 0.9999399637500351300, 0.9999399637500351300, 1.000000000000000000) ) ) 
 REPRESENTATION_ITEM ( '' )  SURFACE ( )  );
#47 = AXIS2_PLACEMENT_3D ( 'NONE', #86, #227, #89 ) ;
#48 = SECURITY_CLASSIFICATION ( '', '', #45 ) ;
#49 = ORIENTED_EDGE ( 'NONE', *, *, #166, .F. ) ;
#50 = PERSON_AND_ORGANIZATION_ROLE ( 'creator' ) ;
#51 = PERSON_AND_ORGANIZATION ( #6, #34 ) ;
#52 = CIRCLE ( 'NONE', #120, 25.39999999999999900 ) ;
#53 = VECTOR ( 'NONE', #123, 1000.000000000000000 ) ;
#54 = CARTESIAN_POINT ( 'NONE',  ( -5.556531826748051500E-013, -25.70472636270969200, 0.3470504155933529200 ) ) ;
#55 = ADVANCED_FACE ( 'NONE', ( #203 ), #223, .T. ) ;
#56 = CIRCLE ( 'NONE', #93, 25.39999999999999900 ) ;
#57 = CARTESIAN_POINT ( 'NONE',  ( -7.910339050454240400E-013, -25.70472636270969200, 0.3470504155934260300 ) ) ;
#58 = CARTESIAN_POINT ( 'NONE',  ( 8.515627871476134200, -25.70472636270969200, 0.3470504155933490400 ) ) ;
#59 = ORIENTED_EDGE ( 'NONE', *, *, #231, .T. ) ;
#60 = DIRECTION ( 'NONE',  ( -0.0000000000000000000, -0.0000000000000000000, -1.000000000000000000 ) ) ;
#61 = CC_DESIGN_PERSON_AND_ORGANIZATION_ASSIGNMENT ( #88, #119, ( #48 ) ) ;
#62 = CARTESIAN_POINT ( 'NONE',  ( -25.54304940482335700, 25.70472636270994100, 0.6898730464759417200 ) ) ;
#63 = MANIFOLD_SOLID_BREP ( 'Imported1', #158 ) ;
#64 = VERTEX_POINT ( 'NONE', #72 ) ;
#65 = CARTESIAN_POINT ( 'NONE',  ( -8.515627871477081000, 25.70472636270993400, 0.3470504155934319700 ) ) ;
#66 = SHAPE_DEFINITION_REPRESENTATION ( #175, #111 ) ;
#67 = APPLICATION_PROTOCOL_DEFINITION ( 'international standard', 'config_control_design', 1994, #116 ) ;
#68 = COORDINATED_UNIVERSAL_TIME_OFFSET ( 2, 0, .AHEAD. ) ;
#69 = ORIENTED_EDGE ( 'NONE', *, *, #97, .F. ) ;
#70 = PERSON_AND_ORGANIZATION ( #6, #34 ) ;
#71 = ORIENTED_EDGE ( 'NONE', *, *, #166, .T. ) ;
#72 = CARTESIAN_POINT ( 'NONE',  ( 25.39999999999999900, 4.884981308350691100E-015, 6.000000000000000000 ) ) ;
#73 = CC_DESIGN_DATE_AND_TIME_ASSIGNMENT ( #138, #164, ( #48 ) ) ;
#74 = CARTESIAN_POINT ( 'NONE',  ( -5.431789900027546300E-013, 25.40000000000041400, 0.3388692534244495100 ) ) ;
#75 = CARTESIAN_POINT ( 'NONE',  ( -5.474962883951906900E-013, 8.570324769625919700, -0.1157115905883182200 ) ) ;
#76 = LOCAL_TIME ( 17, 8, 45.00000000000000000, #229 ) ;
#77 = CIRCLE ( 'NONE', #37, 25.39999999999999900 ) ;
#78 = CARTESIAN_POINT ( 'NONE',  ( 17.03048887340758100, 25.70472636270992700, 0.4613314868944850500 ) ) ;
#79 = CARTESIAN_POINT ( 'NONE',  ( -25.39999999999999900, 7.995584178184967200E-015, 6.000000000000000000 ) ) ;
#80 =( BOUNDED_SURFACE ( )  B_SPLINE_SURFACE ( 3, 3, ( 
 ( #54, #58, #21, #19 ),
 ( #39, #109, #173, #155 ),
 ( #75, #16, #137, #176 ),
 ( #1, #193, #78, #107 ) ),
 .UNSPECIFIED., .F., .F., .F. ) 
 B_SPLINE_SURFACE_WITH_KNOTS ( ( 4, 4 ),
 ( 4, 4 ),
 ( 0.0000000000000000000, 1.000000000000000000 ),
 ( 0.0000000000000000000, 1.000000000000000000 ),
 .UNSPECIFIED. ) 
 GEOMETRIC_REPRESENTATION_ITEM ( )  RATIONAL_B_SPLINE_SURFACE ( (
 ( 1.000000000000000000, 0.9999399637500351300, 0.9999399637500351300, 1.000000000000000000),
 ( 0.9997569930220261400, 0.9996969713612889900, 0.9996969713612889900, 0.9997569930220261400),
 ( 0.9997569930220261400, 0.9996969713612889900, 0.9996969713612889900, 0.9997569930220261400),
 ( 1.000000000000000000, 0.9999399637500351300, 0.9999399637500351300, 1.000000000000000000) ) ) 
 REPRESENTATION_ITEM ( '' )  SURFACE ( )  );
#81 = DIRECTION ( 'NONE',  ( -0.0000000000000000000, -0.0000000000000000000, -1.000000000000000000 ) ) ;
#82 = DATE_AND_TIME ( #101, #15 ) ;
#83 = PERSON_AND_ORGANIZATION_ROLE ( 'creator' ) ;
#84 = APPROVAL ( #33, 'UNSPECIFIED' ) ;
#85 = EDGE_LOOP ( 'NONE', ( #13, #35, #188 ) ) ;
#86 = CARTESIAN_POINT ( 'NONE',  ( 9.992007221626412800E-016, 4.884981308350691100E-015, 0.3388692534244870400 ) ) ;
#87 = DIRECTION ( 'NONE',  ( -0.0000000000000000000, -0.0000000000000000000, -1.000000000000000000 ) ) ;
#88 = PERSON_AND_ORGANIZATION ( #6, #34 ) ;
#89 = DIRECTION ( 'NONE',  ( 1.000000000000000000, 0.0000000000000000000, 0.0000000000000000000 ) ) ;
#90 = DIRECTION ( 'NONE',  ( 0.0000000000000000000, 0.0000000000000000000, 1.000000000000000000 ) ) ;
#91 = CALENDAR_DATE ( 2018, 13, 12 ) ;
#92 = CARTESIAN_POINT ( 'NONE',  ( 0.0000000000000000000, 52.02000000000000300, 6.000000000000000000 ) ) ;
#93 = AXIS2_PLACEMENT_3D ( 'NONE', #190, #212, #41 ) ;
#94 = ORIENTED_EDGE ( 'NONE', *, *, #29, .F. ) ;
#95 = CARTESIAN_POINT ( 'NONE',  ( -7.910339050454240400E-013, -8.570324769625676400, -0.1157115905882468800 ) ) ;
#96 = ORIENTED_EDGE ( 'NONE', *, *, #160, .F. ) ;
#97 = EDGE_CURVE ( 'NONE', #40, #64, #114, .T. ) ;
#98 = EDGE_LOOP ( 'NONE', ( #106, #8, #207 ) ) ;
#99 = APPROVAL_ROLE ( '' ) ;
#100 = EDGE_CURVE ( 'NONE', #141, #118, #192, .T. ) ;
#101 = CALENDAR_DATE ( 2018, 13, 12 ) ;
#102 = LINE ( 'NONE', #171, #195 ) ;
#103 = AXIS2_PLACEMENT_3D ( 'NONE', #136, #90, #169 ) ;
#104 = DIRECTION ( 'NONE',  ( 0.0000000000000000000, 0.0000000000000000000, 1.000000000000000000 ) ) ;
#105 = DATE_AND_TIME ( #200, #113 ) ;
#106 = ORIENTED_EDGE ( 'NONE', *, *, #36, .F. ) ;
#107 = CARTESIAN_POINT ( 'NONE',  ( 25.54304940482318600, 25.70472636270992700, 0.6898730464758866500 ) ) ;
#108 = CARTESIAN_POINT ( 'NONE',  ( 9.992007221626412800E-016, 4.884981308350691100E-015, 6.000000000000000000 ) ) ;
#109 = CARTESIAN_POINT ( 'NONE',  ( 8.519768346206918300, -8.570324769625679900, -0.1157115905883238500 ) ) ;
#110 = CC_DESIGN_PERSON_AND_ORGANIZATION_ASSIGNMENT ( #216, #220, ( #222 ) ) ;
#111 = ADVANCED_BREP_SHAPE_REPRESENTATION ( '110-1555E UVFS pl-cx 50.8 F2000', ( #63, #157 ), #135 ) ;
#112 = AXIS2_PLACEMENT_3D ( 'NONE', #185, #191, #209 ) ;
#113 = LOCAL_TIME ( 17, 8, 45.00000000000000000, #143 ) ;
#114 = LINE ( 'NONE', #208, #53 ) ;
#115 =( NAMED_UNIT ( * ) PLANE_ANGLE_UNIT ( ) SI_UNIT ( $, .RADIAN. ) );
#116 = APPLICATION_CONTEXT ( 'configuration controlled 3d designs of mechanical parts and assemblies' ) ;
#117 = APPROVAL_PERSON_ORGANIZATION ( #152, #84, #99 ) ;
#118 = VERTEX_POINT ( 'NONE', #14 ) ;
#119 = PERSON_AND_ORGANIZATION_ROLE ( 'classification_officer' ) ;
#120 = AXIS2_PLACEMENT_3D ( 'NONE', #108, #153, #174 ) ;
#121 = PERSON_AND_ORGANIZATION ( #6, #34 ) ;
#122 = EDGE_LOOP ( 'NONE', ( #96, #131, #59, #69, #5 ) ) ;
#123 = DIRECTION ( 'NONE',  ( 0.0000000000000000000, 0.0000000000000000000, 1.000000000000000000 ) ) ;
#124 = PRODUCT_DEFINITION ( 'UNKNOWN', '', #182, #230 ) ;
#125 = DIRECTION ( 'NONE',  ( 0.0000000000000000000, 0.0000000000000000000, 1.000000000000000000 ) ) ;
#126 = FACE_OUTER_BOUND ( 'NONE', #233, .T. ) ;
#127 = CC_DESIGN_DATE_AND_TIME_ASSIGNMENT ( #82, #224, ( #124 ) ) ;
#128 = DIRECTION ( 'NONE',  ( 1.000000000000000000, 0.0000000000000000000, 0.0000000000000000000 ) ) ;
#129 = AXIS2_PLACEMENT_3D ( 'NONE', #186, #87, #211 ) ;
#130 = PERSON_AND_ORGANIZATION ( #6, #34 ) ;
#131 = ORIENTED_EDGE ( 'NONE', *, *, #29, .T. ) ;
#132 = CC_DESIGN_APPROVAL ( #219, ( #124 ) ) ;
#133 = APPROVAL_DATE_TIME ( #105, #84 ) ;
#134 = PERSON_AND_ORGANIZATION_ROLE ( 'design_supplier' ) ;
#135 =( GEOMETRIC_REPRESENTATION_CONTEXT ( 3 ) GLOBAL_UNCERTAINTY_ASSIGNED_CONTEXT ( ( #43 ) ) GLOBAL_UNIT_ASSIGNED_CONTEXT ( ( #199, #115, #3 ) ) REPRESENTATION_CONTEXT ( 'NONE', 'WORKASPACE' ) );
#136 = CARTESIAN_POINT ( 'NONE',  ( 9.992007221626412800E-016, 4.884981308350691100E-015, 0.3388692534244870400 ) ) ;
#137 = CARTESIAN_POINT ( 'NONE',  ( 17.03876945000128300, 8.570324769625916200, -0.001374953462202804000 ) ) ;
#138 = DATE_AND_TIME ( #148, #225 ) ;
#139 = FACE_OUTER_BOUND ( 'NONE', #98, .T. ) ;
#140 = CC_DESIGN_PERSON_AND_ORGANIZATION_ASSIGNMENT ( #70, #83, ( #124 ) ) ;
#141 = VERTEX_POINT ( 'NONE', #151 ) ;
#142 = DIRECTION ( 'NONE',  ( 1.000000000000000000, 0.0000000000000000000, 0.0000000000000000000 ) ) ;
#143 = COORDINATED_UNIVERSAL_TIME_OFFSET ( 2, 0, .AHEAD. ) ;
#144 = EDGE_LOOP ( 'NONE', ( #94, #17, #150, #184, #71 ) ) ;
#145 = AXIS2_PLACEMENT_3D ( 'NONE', #92, #125, #156 ) ;
#146 = CIRCLE ( 'NONE', #47, 25.39999999999999900 ) ;
#147 = APPROVAL_ROLE ( '' ) ;
#148 = CALENDAR_DATE ( 2018, 13, 12 ) ;
#149 = VERTEX_POINT ( 'NONE', #74 ) ;
#150 = ORIENTED_EDGE ( 'NONE', *, *, #38, .F. ) ;
#151 = CARTESIAN_POINT ( 'NONE',  ( -5.555825245909860300E-013, -25.40000000000024000, 0.3388692534244495100 ) ) ;
#152 = PERSON_AND_ORGANIZATION ( #6, #34 ) ;
#153 = DIRECTION ( 'NONE',  ( -0.0000000000000000000, -0.0000000000000000000, -1.000000000000000000 ) ) ;
#154 = AXIS2_PLACEMENT_3D ( 'NONE', #214, #232, #180 ) ;
#155 = CARTESIAN_POINT ( 'NONE',  ( 25.55546896474335800, -8.570324769625683500, 0.2272777277612722200 ) ) ;
#156 = DIRECTION ( 'NONE',  ( 1.000000000000000000, 0.0000000000000000000, -0.0000000000000000000 ) ) ;
#157 = AXIS2_PLACEMENT_3D ( 'NONE', #198, #162, #128 ) ;
#158 = CLOSED_SHELL ( 'NONE', ( #170, #55, #189, #215, #172 ) ) ;
#159 = CARTESIAN_POINT ( 'NONE',  ( 9.992007221626412800E-016, 4.884981308350691100E-015, 0.3388692534244870400 ) ) ;
#160 = EDGE_CURVE ( 'NONE', #118, #149, #56, .T. ) ;
#161 = APPROVAL_PERSON_ORGANIZATION ( #121, #219, #7 ) ;
#162 = DIRECTION ( 'NONE',  ( 0.0000000000000000000, 0.0000000000000000000, 1.000000000000000000 ) ) ;
#163 = CARTESIAN_POINT ( 'NONE',  ( -8.519768346207877500, -8.570324769625676400, -0.1157115905882408300 ) ) ;
#164 = DATE_TIME_ROLE ( 'classification_date' ) ;
#165 = APPROVAL_PERSON_ORGANIZATION ( #130, #187, #147 ) ;
#166 = EDGE_CURVE ( 'NONE', #64, #205, #52, .T. ) ;
#167 = APPROVAL_DATE_TIME ( #206, #187 ) ;
#168 = FACE_OUTER_BOUND ( 'NONE', #85, .T. ) ;
#169 = DIRECTION ( 'NONE',  ( 1.000000000000000000, 0.0000000000000000000, 0.0000000000000000000 ) ) ;
#170 = ADVANCED_FACE ( 'NONE', ( #168 ), #80, .T. ) ;
#171 = CARTESIAN_POINT ( 'NONE',  ( -25.39999999999999900, 7.995584178184967200E-015, 0.3388692534244870400 ) ) ;
#172 = ADVANCED_FACE ( 'NONE', ( #126 ), #217, .T. ) ;
#173 = CARTESIAN_POINT ( 'NONE',  ( 17.03876945000127600, -8.570324769625683500, -0.001374953462204538300 ) ) ;
#174 = DIRECTION ( 'NONE',  ( 1.000000000000000000, 0.0000000000000000000, 0.0000000000000000000 ) ) ;
#175 = PRODUCT_DEFINITION_SHAPE ( 'NONE', 'NONE',  #124 ) ;
#176 = CARTESIAN_POINT ( 'NONE',  ( 25.55546896474336200, 8.570324769625912600, 0.2272777277612739700 ) ) ;
#177 = CARTESIAN_POINT ( 'NONE',  ( -7.771561172376095800E-013, 25.70472636270993400, 0.3470504155934259200 ) ) ;
#178 = CARTESIAN_POINT ( 'NONE',  ( -8.519768346207870400, 8.570324769625921500, -0.1157115905882391300 ) ) ;
#179 = MECHANICAL_CONTEXT ( 'NONE', #28, 'mechanical' ) ;
#180 = DIRECTION ( 'NONE',  ( 1.000000000000000000, 0.0000000000000000000, 0.0000000000000000000 ) ) ;
#181 = CIRCLE ( 'NONE', #11, 25.39999999999999900 ) ;
#182 = PRODUCT_DEFINITION_FORMATION_WITH_SPECIFIED_SOURCE ( 'ANY', '', #222, .NOT_KNOWN. ) ;
#183 = LOCAL_TIME ( 17, 8, 45.00000000000000000, #12 ) ;
#184 = ORIENTED_EDGE ( 'NONE', *, *, #97, .T. ) ;
#185 = CARTESIAN_POINT ( 'NONE',  ( -1.136868377216160000E-013, 1.705302565824239900E-013, 952.1000000000000200 ) ) ;
#186 = CARTESIAN_POINT ( 'NONE',  ( 9.992007221626412800E-016, 4.884981308350691100E-015, 0.3388692534244870400 ) ) ;
#187 = APPROVAL ( #202, 'UNSPECIFIED' ) ;
#188 = ORIENTED_EDGE ( 'NONE', *, *, #197, .T. ) ;
#189 = ADVANCED_FACE ( 'NONE', ( #139 ), #46, .T. ) ;
#190 = CARTESIAN_POINT ( 'NONE',  ( 9.992007221626412800E-016, 4.884981308350691100E-015, 0.3388692534244870400 ) ) ;
#191 = DIRECTION ( 'NONE',  ( 1.000000000000000000, -2.441640666974649900E-016, -4.577765423489080400E-016 ) ) ;
#192 = CIRCLE ( 'NONE', #129, 25.39999999999999900 ) ;
#193 = CARTESIAN_POINT ( 'NONE',  ( 8.515627871476146600, 25.70472636270992700, 0.3470504155933490400 ) ) ;
#194 = CARTESIAN_POINT ( 'NONE',  ( -25.55546896474355000, -8.570324769625669200, 0.2272777277613273200 ) ) ;
#195 = VECTOR ( 'NONE', #104, 1000.000000000000000 ) ;
#196 = CC_DESIGN_SECURITY_CLASSIFICATION ( #48, ( #182 ) ) ;
#197 = EDGE_CURVE ( 'NONE', #149, #40, #181, .T. ) ;
#198 = CARTESIAN_POINT ( 'NONE',  ( 0.0000000000000000000, 0.0000000000000000000, 0.0000000000000000000 ) ) ;
#199 =( LENGTH_UNIT ( ) NAMED_UNIT ( * ) SI_UNIT ( .MILLI., .METRE. ) );
#200 = CALENDAR_DATE ( 2018, 13, 12 ) ;
#201 = CARTESIAN_POINT ( 'NONE',  ( -17.03876945000184400, 8.570324769625925000, -0.001374953462136965600 ) ) ;
#202 = APPROVAL_STATUS ( 'not_yet_approved' ) ;
#203 = FACE_OUTER_BOUND ( 'NONE', #122, .T. ) ;
#204 = PERSON_AND_ORGANIZATION ( #6, #34 ) ;
#205 = VERTEX_POINT ( 'NONE', #79 ) ;
#206 = DATE_AND_TIME ( #91, #183 ) ;
#207 = ORIENTED_EDGE ( 'NONE', *, *, #160, .T. ) ;
#208 = CARTESIAN_POINT ( 'NONE',  ( 25.39999999999999900, 4.884981308350691100E-015, 0.3388692534244870400 ) ) ;
#209 = DIRECTION ( 'NONE',  ( -2.441640666974649900E-016, -1.000000000000000000, -2.332156337832489300E-016 ) ) ;
#210 = PRODUCT_RELATED_PRODUCT_CATEGORY ( 'detail', '', ( #222 ) ) ;
#211 = DIRECTION ( 'NONE',  ( 1.000000000000000000, 8.881784197001252300E-016, 0.0000000000000000000 ) ) ;
#212 = DIRECTION ( 'NONE',  ( -0.0000000000000000000, -0.0000000000000000000, -1.000000000000000000 ) ) ;
#213 = DATE_AND_TIME ( #32, #76 ) ;
#214 = CARTESIAN_POINT ( 'NONE',  ( 9.992007221626412800E-016, 4.884981308350691100E-015, 0.3388692534244870400 ) ) ;
#215 = ADVANCED_FACE ( 'NONE', ( #44 ), #218, .T. ) ;
#216 = PERSON_AND_ORGANIZATION ( #6, #34 ) ;
#217 = PLANE ( 'NONE',  #145 ) ;
#218 = CYLINDRICAL_SURFACE ( 'NONE', #154, 25.39999999999999900 ) ;
#219 = APPROVAL ( #10, 'UNSPECIFIED' ) ;
#220 = PERSON_AND_ORGANIZATION_ROLE ( 'design_owner' ) ;
#221 = DIRECTION ( 'NONE',  ( 1.000000000000000000, 8.881784197001252300E-016, 0.0000000000000000000 ) ) ;
#222 = PRODUCT ( '110-1555E UVFS pl-cx 50.8 F2000', '110-1555E UVFS pl-cx 50.8 F2000', '', ( #179 ) ) ;
#223 = CYLINDRICAL_SURFACE ( 'NONE', #103, 25.39999999999999900 ) ;
#224 = DATE_TIME_ROLE ( 'creation_date' ) ;
#225 = LOCAL_TIME ( 17, 8, 45.00000000000000000, #42 ) ;
#226 = CARTESIAN_POINT ( 'NONE',  ( 25.39999999999999900, 4.884981308350691100E-015, 0.3388692534244870400 ) ) ;
#227 = DIRECTION ( 'NONE',  ( -0.0000000000000000000, -0.0000000000000000000, -1.000000000000000000 ) ) ;
#228 = CC_DESIGN_APPROVAL ( #187, ( #182 ) ) ;
#229 = COORDINATED_UNIVERSAL_TIME_OFFSET ( 2, 0, .AHEAD. ) ;
#230 = DESIGN_CONTEXT ( 'detailed design', #116, 'design' ) ;
#231 = EDGE_CURVE ( 'NONE', #205, #64, #77, .T. ) ;
#232 = DIRECTION ( 'NONE',  ( 0.0000000000000000000, 0.0000000000000000000, 1.000000000000000000 ) ) ;
#233 = EDGE_LOOP ( 'NONE', ( #49, #27 ) ) ;
#234 = CARTESIAN_POINT ( 'NONE',  ( -17.03048887340815300, -25.70472636270968500, 0.4613314868945508900 ) ) ;
#235 = CARTESIAN_POINT ( 'NONE',  ( -8.515627871477095200, -25.70472636270968500, 0.3470504155934320800 ) ) ;
ENDSEC;
END-ISO-10303-21;
