ISO-10303-21;
HEADER;
FILE_DESCRIPTION (( 'STEP AP203' ),
    '1' );
FILE_NAME ('110-1545E UVFS pl-cx 50.8 F1000.STEP',
    '2018-12-13T15:09:04',
    ( '' ),
    ( '' ),
    'SwSTEP 2.0',
    'SolidWorks 2017',
    '' );
FILE_SCHEMA (( 'CONFIG_CONTROL_DESIGN' ));
ENDSEC;

DATA;
#1 = CARTESIAN_POINT ( 'NONE',  ( 9.992007221626412800E-016, 4.884981308350691100E-015, 0.6780295358658979800 ) ) ;
#2 = EDGE_CURVE ( 'NONE', #162, #3, #182, .T. ) ;
#3 = VERTEX_POINT ( 'NONE', #87 ) ;
#4 = DIRECTION ( 'NONE',  ( 0.0000000000000000000, 0.0000000000000000000, 1.000000000000000000 ) ) ;
#5 = DESIGN_CONTEXT ( 'detailed design', #209, 'design' ) ;
#6 =( NAMED_UNIT ( * ) PLANE_ANGLE_UNIT ( ) SI_UNIT ( $, .RADIAN. ) );
#7 = DATE_TIME_ROLE ( 'creation_date' ) ;
#8 = LINE ( 'NONE', #113, #95 ) ;
#9 = APPROVAL_PERSON_ORGANIZATION ( #135, #10, #23 ) ;
#10 = APPROVAL ( #83, 'UNSPECIFIED' ) ;
#11 = ORIENTED_EDGE ( 'NONE', *, *, #227, .F. ) ;
#12 = EDGE_CURVE ( 'NONE', #162, #30, #48, .T. ) ;
#13 = CARTESIAN_POINT ( 'NONE',  ( 17.05029438235899900, 8.576507693485814000, -0.002794832952066235400 ) ) ;
#14 = COORDINATED_UNIVERSAL_TIME_OFFSET ( 2, 0, .AHEAD. ) ;
#15 = CARTESIAN_POINT ( 'NONE',  ( -25.39999999999999900, 7.995584178184967200E-015, 6.000000000000000000 ) ) ;
#16 = DIRECTION ( 'NONE',  ( 0.0000000000000000000, 0.0000000000000000000, 1.000000000000000000 ) ) ;
#17 = ORIENTED_EDGE ( 'NONE', *, *, #195, .F. ) ;
#18 = DIRECTION ( 'NONE',  ( 1.000000000000000000, 0.0000000000000000000, -0.0000000000000000000 ) ) ;
#19 = CARTESIAN_POINT ( 'NONE',  ( -8.526683624003954500, -8.576507693485766000, -0.2316905819402661200 ) ) ;
#20 =( NAMED_UNIT ( * ) SI_UNIT ( $, .STERADIAN. ) SOLID_ANGLE_UNIT ( ) );
#21 = DIRECTION ( 'NONE',  ( 1.000000000000000000, 0.0000000000000000000, 0.0000000000000000000 ) ) ;
#22 = ORGANIZATION ( 'UNSPECIFIED', 'UNSPECIFIED', '' ) ;
#23 = APPROVAL_ROLE ( '' ) ;
#24 = DIRECTION ( 'NONE',  ( 1.000000000000000000, 0.0000000000000000000, 0.0000000000000000000 ) ) ;
#25 = PERSON_AND_ORGANIZATION ( #179, #22 ) ;
#26 = EDGE_LOOP ( 'NONE', ( #68, #111, #101 ) ) ;
#27 = CC_DESIGN_PERSON_AND_ORGANIZATION_ASSIGNMENT ( #155, #152, ( #228 ) ) ;
#28 = AXIS2_PLACEMENT_3D ( 'NONE', #47, #69, #231 ) ;
#29 = ORIENTED_EDGE ( 'NONE', *, *, #149, .T. ) ;
#30 = VERTEX_POINT ( 'NONE', #15 ) ;
#31 = CARTESIAN_POINT ( 'NONE',  ( -9.402812967457422800E-014, 25.70450526158513700, 0.6943959004509503400 ) ) ;
#32 = CARTESIAN_POINT ( 'NONE',  ( 8.526683624003711200, -8.576507693485769600, -0.2316905819402758400 ) ) ;
#33 = CARTESIAN_POINT ( 'NONE',  ( -17.01714511377070900, -25.70450526158508400, 0.9228466291661048300 ) ) ;
#34 = DIRECTION ( 'NONE',  ( -0.0000000000000000000, -0.0000000000000000000, -1.000000000000000000 ) ) ;
#35 = FACE_OUTER_BOUND ( 'NONE', #85, .T. ) ;
#36 = CARTESIAN_POINT ( 'NONE',  ( -8.510106002569262500, -25.70450526158508400, 0.6943959004509582300 ) ) ;
#37 = CC_DESIGN_PERSON_AND_ORGANIZATION_ASSIGNMENT ( #203, #190, ( #199 ) ) ;
#38 = CARTESIAN_POINT ( 'NONE',  ( 0.0000000000000000000, 52.02000000000000300, 6.000000000000000000 ) ) ;
#39 = AXIS2_PLACEMENT_3D ( 'NONE', #61, #154, #24 ) ;
#40 = ORIENTED_EDGE ( 'NONE', *, *, #84, .F. ) ;
#41 = DATE_TIME_ROLE ( 'classification_date' ) ;
#42 = APPROVAL_STATUS ( 'not_yet_approved' ) ;
#43 = SHAPE_DEFINITION_REPRESENTATION ( #177, #108 ) ;
#44 = ORIENTED_EDGE ( 'NONE', *, *, #227, .T. ) ;
#45 = PERSON_AND_ORGANIZATION ( #179, #22 ) ;
#46 = SECURITY_CLASSIFICATION ( '', '', #64 ) ;
#47 = CARTESIAN_POINT ( 'NONE',  ( 9.992007221626412800E-016, 4.884981308350691100E-015, 0.6780295358658979800 ) ) ;
#48 = LINE ( 'NONE', #71, #205 ) ;
#49 = CARTESIAN_POINT ( 'NONE',  ( -9.840512263823201900E-014, 8.576507693485815800, -0.2316905819402718700 ) ) ;
#50 = CARTESIAN_POINT ( 'NONE',  ( 17.01714511377055000, 25.70450526158513300, 0.9228466291660855100 ) ) ;
#51 = DATE_AND_TIME ( #55, #103 ) ;
#52 = DIRECTION ( 'NONE',  ( 1.000000000000000000, 0.0000000000000000000, 0.0000000000000000000 ) ) ;
#53 = DIRECTION ( 'NONE',  ( 1.000000000000000000, -2.441384245984629900E-016, -2.109852854684000100E-016 ) ) ;
#54 = CARTESIAN_POINT ( 'NONE',  ( -8.510106002569248300, 25.70450526158514000, 0.6943959004509578900 ) ) ;
#55 = CALENDAR_DATE ( 2018, 13, 12 ) ;
#56 = CARTESIAN_POINT ( 'NONE',  ( 9.992007221626412800E-016, 4.884981308350691100E-015, 6.000000000000000000 ) ) ;
#57 = ORIENTED_EDGE ( 'NONE', *, *, #140, .F. ) ;
#58 = DIRECTION ( 'NONE',  ( -0.0000000000000000000, -0.0000000000000000000, -1.000000000000000000 ) ) ;
#59 = CC_DESIGN_APPROVAL ( #78, ( #46 ) ) ;
#60 =( LENGTH_UNIT ( ) NAMED_UNIT ( * ) SI_UNIT ( .MILLI., .METRE. ) );
#61 = CARTESIAN_POINT ( 'NONE',  ( 9.992007221626412800E-016, 4.884981308350691100E-015, 6.000000000000000000 ) ) ;
#62 = ADVANCED_FACE ( 'NONE', ( #196 ), #117, .T. ) ;
#63 = DATE_AND_TIME ( #165, #90 ) ;
#64 = SECURITY_CLASSIFICATION_LEVEL ( 'unclassified' ) ;
#65 = ORIENTED_EDGE ( 'NONE', *, *, #149, .F. ) ;
#66 = COORDINATED_UNIVERSAL_TIME_OFFSET ( 2, 0, .AHEAD. ) ;
#67 = AXIS2_PLACEMENT_3D ( 'NONE', #234, #58, #52 ) ;
#68 = ORIENTED_EDGE ( 'NONE', *, *, #195, .T. ) ;
#69 = DIRECTION ( 'NONE',  ( -0.0000000000000000000, -0.0000000000000000000, -1.000000000000000000 ) ) ;
#70 = APPROVAL_PERSON_ORGANIZATION ( #210, #112, #225 ) ;
#71 = CARTESIAN_POINT ( 'NONE',  ( -25.39999999999999900, 7.995584178184967200E-015, 0.6780295358658979800 ) ) ;
#72 = CARTESIAN_POINT ( 'NONE',  ( 25.56468875858131900, 8.576507693485808700, 0.4548316850825377400 ) ) ;
#73 = CARTESIAN_POINT ( 'NONE',  ( -25.56468875858139400, 8.576507693485822900, 0.4548316850825541700 ) ) ;
#74 = CARTESIAN_POINT ( 'NONE',  ( 0.0000000000000000000, 5.684341886080800200E-014, 476.1000000000000200 ) ) ;
#75 = DATE_AND_TIME ( #157, #175 ) ;
#76 = CLOSED_SHELL ( 'NONE', ( #62, #134, #151, #223, #114 ) ) ;
#77 = DIRECTION ( 'NONE',  ( -0.0000000000000000000, -0.0000000000000000000, -1.000000000000000000 ) ) ;
#78 = APPROVAL ( #191, 'UNSPECIFIED' ) ;
#79 = CARTESIAN_POINT ( 'NONE',  ( -17.05029438235915900, -8.576507693485762500, -0.002794832952049104600 ) ) ;
#80 = CARTESIAN_POINT ( 'NONE',  ( -1.065081561411254800E-013, -25.39999999999975300, 0.6780295358658871000 ) ) ;
#81 = PERSON_AND_ORGANIZATION_ROLE ( 'classification_officer' ) ;
#82 = APPLICATION_PROTOCOL_DEFINITION ( 'international standard', 'config_control_design', 1994, #209 ) ;
#83 = APPROVAL_STATUS ( 'not_yet_approved' ) ;
#84 = EDGE_CURVE ( 'NONE', #212, #3, #142, .T. ) ;
#85 = EDGE_LOOP ( 'NONE', ( #173, #91, #44, #217, #57 ) ) ;
#86 = CC_DESIGN_SECURITY_CLASSIFICATION ( #46, ( #228 ) ) ;
#87 = CARTESIAN_POINT ( 'NONE',  ( -9.410592417152367200E-014, 25.39999999999981000, 0.6780295358658871000 ) ) ;
#88 = DIRECTION ( 'NONE',  ( 0.0000000000000000000, 0.0000000000000000000, 1.000000000000000000 ) ) ;
#89 = VERTEX_POINT ( 'NONE', #109 ) ;
#90 = LOCAL_TIME ( 17, 9, 4.000000000000000000, #161 ) ;
#91 = ORIENTED_EDGE ( 'NONE', *, *, #12, .T. ) ;
#92 = PRODUCT_DEFINITION ( 'UNKNOWN', '', #228, #5 ) ;
#93 = DIRECTION ( 'NONE',  ( 1.000000000000000000, 0.0000000000000000000, 0.0000000000000000000 ) ) ;
#94 = CARTESIAN_POINT ( 'NONE',  ( 9.992007221626412800E-016, 4.884981308350691100E-015, 0.6780295358658979800 ) ) ;
#95 = VECTOR ( 'NONE', #146, 1000.000000000000000 ) ;
#96 = DIRECTION ( 'NONE',  ( 1.000000000000000000, 0.0000000000000000000, 0.0000000000000000000 ) ) ;
#97 = CALENDAR_DATE ( 2018, 13, 12 ) ;
#98 = CIRCLE ( 'NONE', #206, 25.39999999999999900 ) ;
#99 = AXIS2_PLACEMENT_3D ( 'NONE', #94, #16, #211 ) ;
#100 = COORDINATED_UNIVERSAL_TIME_OFFSET ( 2, 0, .AHEAD. ) ;
#101 = ORIENTED_EDGE ( 'NONE', *, *, #140, .T. ) ;
#102 = MANIFOLD_SOLID_BREP ( 'Imported1', #76 ) ;
#103 = LOCAL_TIME ( 17, 9, 4.000000000000000000, #100 ) ;
#104 = CC_DESIGN_PERSON_AND_ORGANIZATION_ASSIGNMENT ( #141, #208, ( #92 ) ) ;
#105 = ORIENTED_EDGE ( 'NONE', *, *, #12, .F. ) ;
#106 = CARTESIAN_POINT ( 'NONE',  ( 17.05029438235899200, -8.576507693485773100, -0.002794832952068458100 ) ) ;
#107 = AXIS2_PLACEMENT_3D ( 'NONE', #74, #53, #222 ) ;
#108 = ADVANCED_BREP_SHAPE_REPRESENTATION ( '110-1545E UVFS pl-cx 50.8 F1000', ( #102, #120 ), #170 ) ;
#109 = CARTESIAN_POINT ( 'NONE',  ( 25.39999999999999900, 4.884981308350691100E-015, 0.6780295358658979800 ) ) ;
#110 = PLANE ( 'NONE',  #194 ) ;
#111 = ORIENTED_EDGE ( 'NONE', *, *, #84, .T. ) ;
#112 = APPROVAL ( #42, 'UNSPECIFIED' ) ;
#113 = CARTESIAN_POINT ( 'NONE',  ( 25.39999999999999900, 4.884981308350691100E-015, 0.6780295358658979800 ) ) ;
#114 = ADVANCED_FACE ( 'NONE', ( #159 ), #110, .T. ) ;
#115 = APPLICATION_CONTEXT ( 'configuration controlled 3d designs of mechanical parts and assemblies' ) ;
#116 = DATE_AND_TIME ( #160, #214 ) ;
#117 =( BOUNDED_SURFACE ( )  B_SPLINE_SURFACE ( 3, 3, ( 
 ( #201, #181, #163, #124 ),
 ( #202, #32, #106, #218 ),
 ( #49, #216, #13, #72 ),
 ( #31, #164, #50, #183 ) ),
 .UNSPECIFIED., .F., .F., .F. ) 
 B_SPLINE_SURFACE_WITH_KNOTS ( ( 4, 4 ),
 ( 4, 4 ),
 ( 0.0000000000000000000, 1.000000000000000000 ),
 ( 0.0000000000000000000, 1.000000000000000000 ),
 .UNSPECIFIED. ) 
 GEOMETRIC_REPRESENTATION_ITEM ( )  RATIONAL_B_SPLINE_SURFACE ( (
 ( 1.000000000000000000, 0.9997597451495382500, 0.9997597451495382500, 1.000000000000000000),
 ( 0.9990276609949575400, 0.9987876397536580300, 0.9987876397536580300, 0.9990276609949575400),
 ( 0.9990276609949575400, 0.9987876397536580300, 0.9987876397536580300, 0.9990276609949575400),
 ( 1.000000000000000000, 0.9997597451495382500, 0.9997597451495382500, 1.000000000000000000) ) ) 
 REPRESENTATION_ITEM ( '' )  SURFACE ( )  );
#118 = CC_DESIGN_PERSON_AND_ORGANIZATION_ASSIGNMENT ( #45, #174, ( #228 ) ) ;
#119 = PERSON_AND_ORGANIZATION ( #179, #22 ) ;
#120 = AXIS2_PLACEMENT_3D ( 'NONE', #133, #132, #21 ) ;
#121 = ORIENTED_EDGE ( 'NONE', *, *, #180, .F. ) ;
#122 = PRODUCT_RELATED_PRODUCT_CATEGORY ( 'detail', '', ( #199 ) ) ;
#123 =( BOUNDED_SURFACE ( )  B_SPLINE_SURFACE ( 3, 3, ( 
 ( #147, #33, #36, #169 ),
 ( #185, #79, #19, #204 ),
 ( #73, #207, #166, #186 ),
 ( #148, #188, #54, #235 ) ),
 .UNSPECIFIED., .F., .F., .T. ) 
 B_SPLINE_SURFACE_WITH_KNOTS ( ( 4, 4 ),
 ( 4, 4 ),
 ( 0.0000000000000000000, 1.000000000000000000 ),
 ( 0.0000000000000000000, 1.000000000000000000 ),
 .UNSPECIFIED. ) 
 GEOMETRIC_REPRESENTATION_ITEM ( )  RATIONAL_B_SPLINE_SURFACE ( (
 ( 1.000000000000000000, 0.9997597451495382500, 0.9997597451495382500, 1.000000000000000000),
 ( 0.9990276609949575400, 0.9987876397536580300, 0.9987876397536580300, 0.9990276609949575400),
 ( 0.9990276609949575400, 0.9987876397536580300, 0.9987876397536580300, 0.9990276609949575400),
 ( 1.000000000000000000, 0.9997597451495382500, 0.9997597451495382500, 1.000000000000000000) ) ) 
 REPRESENTATION_ITEM ( '' )  SURFACE ( )  );
#124 = CARTESIAN_POINT ( 'NONE',  ( 25.51498576137586500, -25.70450526158509400, 1.379583427409386800 ) ) ;
#125 = CARTESIAN_POINT ( 'NONE',  ( 9.992007221626412800E-016, 4.884981308350691100E-015, 0.6780295358658979800 ) ) ;
#126 = EDGE_LOOP ( 'NONE', ( #65, #11 ) ) ;
#127 = DIRECTION ( 'NONE',  ( 0.0000000000000000000, 0.0000000000000000000, 1.000000000000000000 ) ) ;
#128 = AXIS2_PLACEMENT_3D ( 'NONE', #125, #34, #167 ) ;
#129 = CARTESIAN_POINT ( 'NONE',  ( 9.992007221626412800E-016, 4.884981308350691100E-015, 0.6780295358658979800 ) ) ;
#130 = FACE_OUTER_BOUND ( 'NONE', #176, .T. ) ;
#131 = AXIS2_PLACEMENT_3D ( 'NONE', #129, #184, #219 ) ;
#132 = DIRECTION ( 'NONE',  ( 0.0000000000000000000, 0.0000000000000000000, 1.000000000000000000 ) ) ;
#133 = CARTESIAN_POINT ( 'NONE',  ( 0.0000000000000000000, 0.0000000000000000000, 0.0000000000000000000 ) ) ;
#134 = ADVANCED_FACE ( 'NONE', ( #35 ), #230, .T. ) ;
#135 = PERSON_AND_ORGANIZATION ( #179, #22 ) ;
#136 = EDGE_LOOP ( 'NONE', ( #105, #121, #17, #145, #29 ) ) ;
#137 = ORIENTED_EDGE ( 'NONE', *, *, #180, .T. ) ;
#138 = ORIENTED_EDGE ( 'NONE', *, *, #2, .T. ) ;
#139 = EDGE_CURVE ( 'NONE', #89, #150, #8, .T. ) ;
#140 = EDGE_CURVE ( 'NONE', #3, #89, #189, .T. ) ;
#141 = PERSON_AND_ORGANIZATION ( #179, #22 ) ;
#142 = CIRCLE ( 'NONE', #107, 476.1000000000000200 ) ;
#143 = CC_DESIGN_APPROVAL ( #112, ( #92 ) ) ;
#144 = APPROVAL_PERSON_ORGANIZATION ( #25, #78, #226 ) ;
#145 = ORIENTED_EDGE ( 'NONE', *, *, #139, .T. ) ;
#146 = DIRECTION ( 'NONE',  ( 0.0000000000000000000, 0.0000000000000000000, 1.000000000000000000 ) ) ;
#147 = CARTESIAN_POINT ( 'NONE',  ( -25.51498576137596100, -25.70450526158508000, 1.379583427409403200 ) ) ;
#148 = CARTESIAN_POINT ( 'NONE',  ( -25.51498576137594700, 25.70450526158514400, 1.379583427409403200 ) ) ;
#149 = EDGE_CURVE ( 'NONE', #150, #30, #98, .T. ) ;
#150 = VERTEX_POINT ( 'NONE', #171 ) ;
#151 = ADVANCED_FACE ( 'NONE', ( #130 ), #123, .T. ) ;
#152 = PERSON_AND_ORGANIZATION_ROLE ( 'design_supplier' ) ;
#153 = MECHANICAL_CONTEXT ( 'NONE', #115, 'mechanical' ) ;
#154 = DIRECTION ( 'NONE',  ( -0.0000000000000000000, -0.0000000000000000000, -1.000000000000000000 ) ) ;
#155 = PERSON_AND_ORGANIZATION ( #179, #22 ) ;
#156 = CC_DESIGN_DATE_AND_TIME_ASSIGNMENT ( #75, #7, ( #92 ) ) ;
#157 = CALENDAR_DATE ( 2018, 13, 12 ) ;
#158 = AXIS2_PLACEMENT_3D ( 'NONE', #1, #4, #96 ) ;
#159 = FACE_OUTER_BOUND ( 'NONE', #126, .T. ) ;
#160 = CALENDAR_DATE ( 2018, 13, 12 ) ;
#161 = COORDINATED_UNIVERSAL_TIME_OFFSET ( 2, 0, .AHEAD. ) ;
#162 = VERTEX_POINT ( 'NONE', #220 ) ;
#163 = CARTESIAN_POINT ( 'NONE',  ( 17.01714511377053500, -25.70450526158509100, 0.9228466291660855100 ) ) ;
#164 = CARTESIAN_POINT ( 'NONE',  ( 8.510106002569024500, 25.70450526158513300, 0.6943959004509485700 ) ) ;
#165 = CALENDAR_DATE ( 2018, 13, 12 ) ;
#166 = CARTESIAN_POINT ( 'NONE',  ( -8.526683624003947400, 8.576507693485821100, -0.2316905819402643200 ) ) ;
#167 = DIRECTION ( 'NONE',  ( 1.000000000000000000, 0.0000000000000000000, 0.0000000000000000000 ) ) ;
#168 = LOCAL_TIME ( 17, 9, 4.000000000000000000, #192 ) ;
#169 = CARTESIAN_POINT ( 'NONE',  ( -2.220446049250313100E-013, -25.70450526158508700, 0.6943959004509543400 ) ) ;
#170 =( GEOMETRIC_REPRESENTATION_CONTEXT ( 3 ) GLOBAL_UNCERTAINTY_ASSIGNED_CONTEXT ( ( #187 ) ) GLOBAL_UNIT_ASSIGNED_CONTEXT ( ( #60, #6, #20 ) ) REPRESENTATION_CONTEXT ( 'NONE', 'WORKASPACE' ) );
#171 = CARTESIAN_POINT ( 'NONE',  ( 25.39999999999999900, 4.884981308350691100E-015, 6.000000000000000000 ) ) ;
#172 = APPLICATION_PROTOCOL_DEFINITION ( 'international standard', 'config_control_design', 1994, #115 ) ;
#173 = ORIENTED_EDGE ( 'NONE', *, *, #2, .F. ) ;
#174 = PERSON_AND_ORGANIZATION_ROLE ( 'creator' ) ;
#175 = LOCAL_TIME ( 17, 9, 4.000000000000000000, #66 ) ;
#176 = EDGE_LOOP ( 'NONE', ( #40, #137, #138 ) ) ;
#177 = PRODUCT_DEFINITION_SHAPE ( 'NONE', 'NONE',  #92 ) ;
#178 = DATE_AND_TIME ( #97, #168 ) ;
#179 = PERSON ( 'UNSPECIFIED', 'UNSPECIFIED', 'UNSPECIFIED', ('UNSPECIFIED'), ('UNSPECIFIED'), ('UNSPECIFIED') ) ;
#180 = EDGE_CURVE ( 'NONE', #212, #162, #215, .T. ) ;
#181 = CARTESIAN_POINT ( 'NONE',  ( 8.510106002569012100, -25.70450526158509100, 0.6943959004509485700 ) ) ;
#182 = CIRCLE ( 'NONE', #28, 25.39999999999999900 ) ;
#183 = CARTESIAN_POINT ( 'NONE',  ( 25.51498576137587900, 25.70450526158513000, 1.379583427409386800 ) ) ;
#184 = DIRECTION ( 'NONE',  ( -0.0000000000000000000, -0.0000000000000000000, -1.000000000000000000 ) ) ;
#185 = CARTESIAN_POINT ( 'NONE',  ( -25.56468875858140100, -8.576507693485757100, 0.4548316850825521200 ) ) ;
#186 = CARTESIAN_POINT ( 'NONE',  ( -2.116362640691704400E-013, 8.576507693485815800, -0.2316905819402680600 ) ) ;
#187 = UNCERTAINTY_MEASURE_WITH_UNIT (LENGTH_MEASURE( 1.000000000000000100E-005 ), #60, 'distance_accuracy_value', 'NONE');
#188 = CARTESIAN_POINT ( 'NONE',  ( -17.01714511377069500, 25.70450526158514000, 0.9228466291661048300 ) ) ;
#189 = CIRCLE ( 'NONE', #131, 25.39999999999999900 ) ;
#190 = PERSON_AND_ORGANIZATION_ROLE ( 'design_owner' ) ;
#191 = APPROVAL_STATUS ( 'not_yet_approved' ) ;
#192 = COORDINATED_UNIVERSAL_TIME_OFFSET ( 2, 0, .AHEAD. ) ;
#193 = CIRCLE ( 'NONE', #39, 25.39999999999999900 ) ;
#194 = AXIS2_PLACEMENT_3D ( 'NONE', #38, #127, #18 ) ;
#195 = EDGE_CURVE ( 'NONE', #89, #212, #233, .T. ) ;
#196 = FACE_OUTER_BOUND ( 'NONE', #26, .T. ) ;
#197 = APPROVAL_DATE_TIME ( #116, #112 ) ;
#198 = APPROVAL_DATE_TIME ( #63, #10 ) ;
#199 = PRODUCT ( '110-1545E UVFS pl-cx 50.8 F1000', '110-1545E UVFS pl-cx 50.8 F1000', '', ( #153 ) ) ;
#200 = CC_DESIGN_APPROVAL ( #10, ( #228 ) ) ;
#201 = CARTESIAN_POINT ( 'NONE',  ( -1.065790445138668200E-013, -25.70450526158508700, 0.6943959004509503400 ) ) ;
#202 = CARTESIAN_POINT ( 'NONE',  ( -1.025928327919204800E-013, -8.576507693485764200, -0.2316905819402740300 ) ) ;
#203 = PERSON_AND_ORGANIZATION ( #179, #22 ) ;
#204 = CARTESIAN_POINT ( 'NONE',  ( -2.185751579730776900E-013, -8.576507693485764200, -0.2316905819402699200 ) ) ;
#205 = VECTOR ( 'NONE', #88, 1000.000000000000000 ) ;
#206 = AXIS2_PLACEMENT_3D ( 'NONE', #56, #77, #93 ) ;
#207 = CARTESIAN_POINT ( 'NONE',  ( -17.05029438235915200, 8.576507693485824600, -0.002794832952047044600 ) ) ;
#208 = PERSON_AND_ORGANIZATION_ROLE ( 'creator' ) ;
#209 = APPLICATION_CONTEXT ( 'configuration controlled 3d designs of mechanical parts and assemblies' ) ;
#210 = PERSON_AND_ORGANIZATION ( #179, #22 ) ;
#211 = DIRECTION ( 'NONE',  ( 1.000000000000000000, 0.0000000000000000000, 0.0000000000000000000 ) ) ;
#212 = VERTEX_POINT ( 'NONE', #80 ) ;
#213 = CC_DESIGN_DATE_AND_TIME_ASSIGNMENT ( #51, #41, ( #46 ) ) ;
#214 = LOCAL_TIME ( 17, 9, 4.000000000000000000, #14 ) ;
#215 = CIRCLE ( 'NONE', #67, 25.39999999999999900 ) ;
#216 = CARTESIAN_POINT ( 'NONE',  ( 8.526683624003714700, 8.576507693485817500, -0.2316905819402736700 ) ) ;
#217 = ORIENTED_EDGE ( 'NONE', *, *, #139, .F. ) ;
#218 = CARTESIAN_POINT ( 'NONE',  ( 25.56468875858131500, -8.576507693485771400, 0.4548316850825355800 ) ) ;
#219 = DIRECTION ( 'NONE',  ( 1.000000000000000000, 8.881784197001252300E-016, 0.0000000000000000000 ) ) ;
#220 = CARTESIAN_POINT ( 'NONE',  ( -25.39999999999999900, 7.995584178184967200E-015, 0.6780295358658979800 ) ) ;
#221 = CC_DESIGN_PERSON_AND_ORGANIZATION_ASSIGNMENT ( #119, #81, ( #46 ) ) ;
#222 = DIRECTION ( 'NONE',  ( -2.441384245984629400E-016, -1.000000000000000000, 0.0000000000000000000 ) ) ;
#223 = ADVANCED_FACE ( 'NONE', ( #224 ), #229, .T. ) ;
#224 = FACE_OUTER_BOUND ( 'NONE', #136, .T. ) ;
#225 = APPROVAL_ROLE ( '' ) ;
#226 = APPROVAL_ROLE ( '' ) ;
#227 = EDGE_CURVE ( 'NONE', #30, #150, #193, .T. ) ;
#228 = PRODUCT_DEFINITION_FORMATION_WITH_SPECIFIED_SOURCE ( 'ANY', '', #199, .NOT_KNOWN. ) ;
#229 = CYLINDRICAL_SURFACE ( 'NONE', #99, 25.39999999999999900 ) ;
#230 = CYLINDRICAL_SURFACE ( 'NONE', #158, 25.39999999999999900 ) ;
#231 = DIRECTION ( 'NONE',  ( 1.000000000000000000, 0.0000000000000000000, 0.0000000000000000000 ) ) ;
#232 = APPROVAL_DATE_TIME ( #178, #78 ) ;
#233 = CIRCLE ( 'NONE', #128, 25.39999999999999900 ) ;
#234 = CARTESIAN_POINT ( 'NONE',  ( 9.992007221626412800E-016, 4.884981308350691100E-015, 0.6780295358658979800 ) ) ;
#235 = CARTESIAN_POINT ( 'NONE',  ( -2.081668171172168500E-013, 25.70450526158513700, 0.6943959004509541200 ) ) ;
ENDSEC;
END-ISO-10303-21;
