ISO-10303-21;
HEADER;
FILE_DESCRIPTION (( 'STEP AP203' ),
    '1' );
FILE_NAME ('110-1535E UVFS pl-cx 50.8 F800.STEP',
    '2018-12-13T15:09:12',
    ( '' ),
    ( '' ),
    'SwSTEP 2.0',
    'SolidWorks 2017',
    '' );
FILE_SCHEMA (( 'CONFIG_CONTROL_DESIGN' ));
ENDSEC;

DATA;
#1 = DIRECTION ( 'NONE',  ( 0.0000000000000000000, 0.0000000000000000000, 1.000000000000000000 ) ) ;
#2 = DIRECTION ( 'NONE',  ( 1.000000000000000000, 0.0000000000000000000, 0.0000000000000000000 ) ) ;
#3 = CC_DESIGN_PERSON_AND_ORGANIZATION_ASSIGNMENT ( #44, #170, ( #205 ) ) ;
#4 = CARTESIAN_POINT ( 'NONE',  ( -8.505958585001772900, 25.70433922477759100, 0.8682948160541029700 ) ) ;
#5 = EDGE_CURVE ( 'NONE', #79, #69, #146, .T. ) ;
#6 = CARTESIAN_POINT ( 'NONE',  ( 17.05895571492837700, -8.581154068350709700, -0.003535869481849514800 ) ) ;
#7 = CARTESIAN_POINT ( 'NONE',  ( -6.245004513516506800E-014, -8.581154068350713300, -0.2898721312442337200 ) ) ;
#8 = AXIS2_PLACEMENT_3D ( 'NONE', #160, #25, #2 ) ;
#9 = CARTESIAN_POINT ( 'NONE',  ( 25.57161734840692100, 8.581154068350777200, 0.5688140559323434700 ) ) ;
#10 = ORIENTED_EDGE ( 'NONE', *, *, #5, .T. ) ;
#11 = DIRECTION ( 'NONE',  ( 1.000000000000000000, 0.0000000000000000000, 0.0000000000000000000 ) ) ;
#12 = CARTESIAN_POINT ( 'NONE',  ( -25.39999999999999900, 7.995584178184967200E-015, 0.8478325282172499700 ) ) ;
#13 = PERSON_AND_ORGANIZATION_ROLE ( 'design_owner' ) ;
#14 = ORIENTED_EDGE ( 'NONE', *, *, #5, .F. ) ;
#15 = COORDINATED_UNIVERSAL_TIME_OFFSET ( 2, 0, .AHEAD. ) ;
#16 = APPLICATION_PROTOCOL_DEFINITION ( 'international standard', 'config_control_design', 1994, #172 ) ;
#17 = PERSON_AND_ORGANIZATION_ROLE ( 'creator' ) ;
#18 = VECTOR ( 'NONE', #92, 1000.000000000000000 ) ;
#19 =( GEOMETRIC_REPRESENTATION_CONTEXT ( 3 ) GLOBAL_UNCERTAINTY_ASSIGNED_CONTEXT ( ( #141 ) ) GLOBAL_UNIT_ASSIGNED_CONTEXT ( ( #136, #169, #210 ) ) REPRESENTATION_CONTEXT ( 'NONE', 'WORKASPACE' ) );
#20 = ORIENTED_EDGE ( 'NONE', *, *, #232, .T. ) ;
#21 = EDGE_LOOP ( 'NONE', ( #83, #206, #14, #20, #156 ) ) ;
#22 = AXIS2_PLACEMENT_3D ( 'NONE', #43, #200, #23 ) ;
#23 = DIRECTION ( 'NONE',  ( 1.000000000000000000, 0.0000000000000000000, 0.0000000000000000000 ) ) ;
#24 = CIRCLE ( 'NONE', #22, 25.39999999999999900 ) ;
#25 = DIRECTION ( 'NONE',  ( -0.0000000000000000000, -0.0000000000000000000, -1.000000000000000000 ) ) ;
#26 = EDGE_CURVE ( 'NONE', #213, #173, #176, .T. ) ;
#27 = CARTESIAN_POINT ( 'NONE',  ( -8.531880948725271800, 8.581154068350771900, -0.2898721312442295000 ) ) ;
#28 = PLANE ( 'NONE',  #80 ) ;
#29 = CARTESIAN_POINT ( 'NONE',  ( 9.992007221626412800E-016, 4.884981308350691100E-015, 0.8478325282172499700 ) ) ;
#30 = DIRECTION ( 'NONE',  ( 1.000000000000000000, 0.0000000000000000000, 0.0000000000000000000 ) ) ;
#31 = CARTESIAN_POINT ( 'NONE',  ( 9.992007221626412800E-016, 4.884981308350691100E-015, 0.8478325282172499700 ) ) ;
#32 = ORIENTED_EDGE ( 'NONE', *, *, #112, .T. ) ;
#33 = CALENDAR_DATE ( 2018, 13, 12 ) ;
#34 = CC_DESIGN_DATE_AND_TIME_ASSIGNMENT ( #196, #110, ( #205 ) ) ;
#35 = PERSON_AND_ORGANIZATION_ROLE ( 'design_supplier' ) ;
#36 = SECURITY_CLASSIFICATION_LEVEL ( 'unclassified' ) ;
#37 = ORIENTED_EDGE ( 'NONE', *, *, #64, .F. ) ;
#38 = PERSON_AND_ORGANIZATION ( #220, #211 ) ;
#39 = CIRCLE ( 'NONE', #171, 25.39999999999999900 ) ;
#40 = ORIENTED_EDGE ( 'NONE', *, *, #145, .T. ) ;
#41 = PERSON_AND_ORGANIZATION ( #220, #211 ) ;
#42 = SHAPE_DEFINITION_REPRESENTATION ( #195, #109 ) ;
#43 = CARTESIAN_POINT ( 'NONE',  ( 9.992007221626412800E-016, 4.884981308350691100E-015, 6.000000000000000000 ) ) ;
#44 = PERSON_AND_ORGANIZATION ( #220, #211 ) ;
#45 = CARTESIAN_POINT ( 'NONE',  ( 2.842170943040400100E-014, 25.40000000000008400, 0.8478325282172453100 ) ) ;
#46 = CC_DESIGN_SECURITY_CLASSIFICATION ( #205, ( #95 ) ) ;
#47 = CARTESIAN_POINT ( 'NONE',  ( -17.05895571492852300, -8.581154068350709700, -0.003535869481869681400 ) ) ;
#48 = LOCAL_TIME ( 17, 9, 12.00000000000000000, #192 ) ;
#49 = DIRECTION ( 'NONE',  ( 0.0000000000000000000, -1.000000000000000000, 0.0000000000000000000 ) ) ;
#50 = DIRECTION ( 'NONE',  ( 1.000000000000000000, 0.0000000000000000000, 0.0000000000000000000 ) ) ;
#51 = ORIENTED_EDGE ( 'NONE', *, *, #112, .F. ) ;
#52 = CARTESIAN_POINT ( 'NONE',  ( 17.00712559007749300, 25.70433922477759100, 1.153761104035880400 ) ) ;
#53 = APPROVAL_DATE_TIME ( #91, #201 ) ;
#54 = APPROVAL_ROLE ( '' ) ;
#55 = DIRECTION ( 'NONE',  ( 1.000000000000000000, 0.0000000000000000000, 0.0000000000000000000 ) ) ;
#56 = APPROVAL_ROLE ( '' ) ;
#57 = CALENDAR_DATE ( 2018, 13, 12 ) ;
#58 = EDGE_CURVE ( 'NONE', #231, #173, #24, .T. ) ;
#59 = AXIS2_PLACEMENT_3D ( 'NONE', #149, #105, #50 ) ;
#60 = FACE_OUTER_BOUND ( 'NONE', #153, .T. ) ;
#61 = ORIENTED_EDGE ( 'NONE', *, *, #26, .T. ) ;
#62 = CARTESIAN_POINT ( 'NONE',  ( -25.39999999999999900, 7.995584178184967200E-015, 0.8478325282172499700 ) ) ;
#63 = CARTESIAN_POINT ( 'NONE',  ( 2.842170943040400100E-014, -25.40000000000002700, 0.8478325282172453100 ) ) ;
#64 = EDGE_CURVE ( 'NONE', #108, #79, #168, .T. ) ;
#65 = VECTOR ( 'NONE', #1, 1000.000000000000000 ) ;
#66 = APPROVAL_PERSON_ORGANIZATION ( #186, #198, #54 ) ;
#67 = DIRECTION ( 'NONE',  ( 0.0000000000000000000, 0.0000000000000000000, 1.000000000000000000 ) ) ;
#68 = CC_DESIGN_APPROVAL ( #201, ( #95 ) ) ;
#69 = VERTEX_POINT ( 'NONE', #63 ) ;
#70 = DIRECTION ( 'NONE',  ( -0.0000000000000000000, -0.0000000000000000000, -1.000000000000000000 ) ) ;
#71 = CARTESIAN_POINT ( 'NONE',  ( -8.505958585001772900, -25.70433922477753100, 0.8682948160541029700 ) ) ;
#72 = DIRECTION ( 'NONE',  ( 0.0000000000000000000, 0.0000000000000000000, 1.000000000000000000 ) ) ;
#73 = CIRCLE ( 'NONE', #97, 380.8999999999999800 ) ;
#74 = APPLICATION_PROTOCOL_DEFINITION ( 'international standard', 'config_control_design', 1994, #229 ) ;
#75 = PRODUCT_RELATED_PRODUCT_CATEGORY ( 'detail', '', ( #185 ) ) ;
#76 = PERSON_AND_ORGANIZATION ( #220, #211 ) ;
#77 = APPROVAL_ROLE ( '' ) ;
#78 = PERSON_AND_ORGANIZATION_ROLE ( 'creator' ) ;
#79 = VERTEX_POINT ( 'NONE', #159 ) ;
#80 = AXIS2_PLACEMENT_3D ( 'NONE', #150, #67, #166 ) ;
#81 = CC_DESIGN_PERSON_AND_ORGANIZATION_ASSIGNMENT ( #212, #13, ( #185 ) ) ;
#82 = LINE ( 'NONE', #197, #18 ) ;
#83 = ORIENTED_EDGE ( 'NONE', *, *, #26, .F. ) ;
#84 = EDGE_LOOP ( 'NONE', ( #180, #51 ) ) ;
#85 = CARTESIAN_POINT ( 'NONE',  ( 8.505958585001689400, -25.70433922477753100, 0.8682948160541047500 ) ) ;
#86 = LOCAL_TIME ( 17, 9, 12.00000000000000000, #129 ) ;
#87 = CARTESIAN_POINT ( 'NONE',  ( -25.49392325376524900, 25.70433922477759500, 1.724372062036794200 ) ) ;
#88 = CARTESIAN_POINT ( 'NONE',  ( 2.842170943040401400E-014, 8.581154068350777200, -0.2898721312442277300 ) ) ;
#89 = CARTESIAN_POINT ( 'NONE',  ( 8.531880948725186500, 8.581154068350771900, -0.2898721312442277800 ) ) ;
#90 = CARTESIAN_POINT ( 'NONE',  ( -25.39999999999999900, 7.995584178184967200E-015, 6.000000000000000000 ) ) ;
#91 = DATE_AND_TIME ( #177, #117 ) ;
#92 = DIRECTION ( 'NONE',  ( 0.0000000000000000000, 0.0000000000000000000, 1.000000000000000000 ) ) ;
#93 = ORIENTED_EDGE ( 'NONE', *, *, #232, .F. ) ;
#94 = ORIENTED_EDGE ( 'NONE', *, *, #145, .F. ) ;
#95 = PRODUCT_DEFINITION_FORMATION_WITH_SPECIFIED_SOURCE ( 'ANY', '', #185, .NOT_KNOWN. ) ;
#96 = DATE_AND_TIME ( #230, #86 ) ;
#97 = AXIS2_PLACEMENT_3D ( 'NONE', #163, #11, #49 ) ;
#98 = CC_DESIGN_APPROVAL ( #198, ( #214 ) ) ;
#99 = DIRECTION ( 'NONE',  ( -0.0000000000000000000, -0.0000000000000000000, -1.000000000000000000 ) ) ;
#100 = FACE_OUTER_BOUND ( 'NONE', #21, .T. ) ;
#101 = LOCAL_TIME ( 17, 9, 12.00000000000000000, #128 ) ;
#102 = CARTESIAN_POINT ( 'NONE',  ( -8.531880948725271800, -8.581154068350709700, -0.2898721312442316700 ) ) ;
#103 = CARTESIAN_POINT ( 'NONE',  ( 8.531880948725186500, -8.581154068350709700, -0.2898721312442299500 ) ) ;
#104 = CARTESIAN_POINT ( 'NONE',  ( 8.505958585001689400, 25.70433922477759100, 0.8682948160541047500 ) ) ;
#105 = DIRECTION ( 'NONE',  ( -0.0000000000000000000, -0.0000000000000000000, -1.000000000000000000 ) ) ;
#106 = DATE_TIME_ROLE ( 'creation_date' ) ;
#107 = CIRCLE ( 'NONE', #59, 25.39999999999999900 ) ;
#108 = VERTEX_POINT ( 'NONE', #45 ) ;
#109 = ADVANCED_BREP_SHAPE_REPRESENTATION ( '110-1535E UVFS pl-cx 50.8 F800', ( #221, #140 ), #19 ) ;
#110 = DATE_TIME_ROLE ( 'classification_date' ) ;
#111 = ORIENTED_EDGE ( 'NONE', *, *, #130, .F. ) ;
#112 = EDGE_CURVE ( 'NONE', #173, #231, #39, .T. ) ;
#113 = APPROVAL_PERSON_ORGANIZATION ( #38, #201, #77 ) ;
#114 = APPROVAL ( #154, 'UNSPECIFIED' ) ;
#115 = CLOSED_SHELL ( 'NONE', ( #121, #204, #187, #189, #133 ) ) ;
#116 = FACE_OUTER_BOUND ( 'NONE', #215, .T. ) ;
#117 = LOCAL_TIME ( 17, 9, 12.00000000000000000, #15 ) ;
#118 = CARTESIAN_POINT ( 'NONE',  ( 2.842170943040401400E-014, -8.581154068350713300, -0.2898721312442299500 ) ) ;
#119 = CARTESIAN_POINT ( 'NONE',  ( 9.992007221626412800E-016, 4.884981308350691100E-015, 6.000000000000000000 ) ) ;
#120 = ORIENTED_EDGE ( 'NONE', *, *, #130, .T. ) ;
#121 = ADVANCED_FACE ( 'NONE', ( #116 ), #175, .T. ) ;
#122 = CYLINDRICAL_SURFACE ( 'NONE', #164, 25.39999999999999900 ) ;
#123 = CARTESIAN_POINT ( 'NONE',  ( 25.39999999999999900, 4.884981308350691100E-015, 6.000000000000000000 ) ) ;
#124 = APPROVAL_DATE_TIME ( #127, #198 ) ;
#125 = CARTESIAN_POINT ( 'NONE',  ( 0.0000000000000000000, 0.0000000000000000000, 0.0000000000000000000 ) ) ;
#126 = CIRCLE ( 'NONE', #144, 25.39999999999999900 ) ;
#127 = DATE_AND_TIME ( #33, #142 ) ;
#128 = COORDINATED_UNIVERSAL_TIME_OFFSET ( 2, 0, .AHEAD. ) ;
#129 = COORDINATED_UNIVERSAL_TIME_OFFSET ( 2, 0, .AHEAD. ) ;
#130 = EDGE_CURVE ( 'NONE', #213, #108, #107, .T. ) ;
#131 = CARTESIAN_POINT ( 'NONE',  ( -5.898059818321144100E-014, 25.70433922477759500, 0.8682948160541010800 ) ) ;
#132 = EDGE_CURVE ( 'NONE', #69, #213, #126, .T. ) ;
#133 = ADVANCED_FACE ( 'NONE', ( #148 ), #28, .T. ) ;
#134 = CARTESIAN_POINT ( 'NONE',  ( -25.49392325376524900, -25.70433922477753400, 1.724372062036794200 ) ) ;
#135 = ORIENTED_EDGE ( 'NONE', *, *, #132, .T. ) ;
#136 =( LENGTH_UNIT ( ) NAMED_UNIT ( * ) SI_UNIT ( .MILLI., .METRE. ) );
#137 = PERSON_AND_ORGANIZATION ( #220, #211 ) ;
#138 = MECHANICAL_CONTEXT ( 'NONE', #229, 'mechanical' ) ;
#139 = APPROVAL_STATUS ( 'not_yet_approved' ) ;
#140 = AXIS2_PLACEMENT_3D ( 'NONE', #125, #226, #143 ) ;
#141 = UNCERTAINTY_MEASURE_WITH_UNIT (LENGTH_MEASURE( 1.000000000000000100E-005 ), #136, 'distance_accuracy_value', 'NONE');
#142 = LOCAL_TIME ( 17, 9, 12.00000000000000000, #235 ) ;
#143 = DIRECTION ( 'NONE',  ( 1.000000000000000000, 0.0000000000000000000, 0.0000000000000000000 ) ) ;
#144 = AXIS2_PLACEMENT_3D ( 'NONE', #29, #70, #30 ) ;
#145 = EDGE_CURVE ( 'NONE', #69, #108, #73, .T. ) ;
#146 = CIRCLE ( 'NONE', #8, 25.39999999999999900 ) ;
#147 = CC_DESIGN_DATE_AND_TIME_ASSIGNMENT ( #96, #106, ( #214 ) ) ;
#148 = FACE_OUTER_BOUND ( 'NONE', #84, .T. ) ;
#149 = CARTESIAN_POINT ( 'NONE',  ( 9.992007221626412800E-016, 4.884981308350691100E-015, 0.8478325282172499700 ) ) ;
#150 = CARTESIAN_POINT ( 'NONE',  ( 0.0000000000000000000, 52.02000000000000300, 6.000000000000000000 ) ) ;
#151 = CARTESIAN_POINT ( 'NONE',  ( 2.842170943040400100E-014, 25.70433922477759500, 0.8682948160541048600 ) ) ;
#152 = DIRECTION ( 'NONE',  ( 1.000000000000000000, 0.0000000000000000000, 0.0000000000000000000 ) ) ;
#153 = EDGE_LOOP ( 'NONE', ( #94, #135, #120 ) ) ;
#154 = APPROVAL_STATUS ( 'not_yet_approved' ) ;
#155 = EDGE_LOOP ( 'NONE', ( #111, #61, #32, #93, #37 ) ) ;
#156 = ORIENTED_EDGE ( 'NONE', *, *, #58, .T. ) ;
#157 = DESIGN_CONTEXT ( 'detailed design', #172, 'design' ) ;
#158 = CC_DESIGN_PERSON_AND_ORGANIZATION_ASSIGNMENT ( #76, #17, ( #95 ) ) ;
#159 = CARTESIAN_POINT ( 'NONE',  ( 25.39999999999999900, 4.884981308350691100E-015, 0.8478325282172499700 ) ) ;
#160 = CARTESIAN_POINT ( 'NONE',  ( 9.992007221626412800E-016, 4.884981308350691100E-015, 0.8478325282172499700 ) ) ;
#161 = CYLINDRICAL_SURFACE ( 'NONE', #179, 25.39999999999999900 ) ;
#162 = DATE_AND_TIME ( #216, #101 ) ;
#163 = CARTESIAN_POINT ( 'NONE',  ( 2.842170943040400100E-014, 5.684341886080800200E-014, 380.8999999999999800 ) ) ;
#164 = AXIS2_PLACEMENT_3D ( 'NONE', #228, #174, #152 ) ;
#165 = CARTESIAN_POINT ( 'NONE',  ( -25.57161734840712000, -8.581154068350713300, 0.5688140559323302500 ) ) ;
#166 = DIRECTION ( 'NONE',  ( 1.000000000000000000, 0.0000000000000000000, -0.0000000000000000000 ) ) ;
#167 = CARTESIAN_POINT ( 'NONE',  ( -17.00712559007763100, -25.70433922477753100, 1.153761104035860600 ) ) ;
#168 = CIRCLE ( 'NONE', #183, 25.39999999999999900 ) ;
#169 =( NAMED_UNIT ( * ) PLANE_ANGLE_UNIT ( ) SI_UNIT ( $, .RADIAN. ) );
#170 = PERSON_AND_ORGANIZATION_ROLE ( 'classification_officer' ) ;
#171 = AXIS2_PLACEMENT_3D ( 'NONE', #119, #222, #208 ) ;
#172 = APPLICATION_CONTEXT ( 'configuration controlled 3d designs of mechanical parts and assemblies' ) ;
#173 = VERTEX_POINT ( 'NONE', #90 ) ;
#174 = DIRECTION ( 'NONE',  ( 0.0000000000000000000, 0.0000000000000000000, 1.000000000000000000 ) ) ;
#175 =( BOUNDED_SURFACE ( )  B_SPLINE_SURFACE ( 3, 3, ( 
 ( #217, #85, #203, #224 ),
 ( #118, #103, #6, #190 ),
 ( #88, #89, #207, #9 ),
 ( #151, #104, #52, #223 ) ),
 .UNSPECIFIED., .F., .F., .F. ) 
 B_SPLINE_SURFACE_WITH_KNOTS ( ( 4, 4 ),
 ( 4, 4 ),
 ( 0.0000000000000000000, 1.000000000000000000 ),
 ( 0.0000000000000000000, 1.000000000000000000 ),
 .UNSPECIFIED. ) 
 GEOMETRIC_REPRESENTATION_ITEM ( )  RATIONAL_B_SPLINE_SURFACE ( (
 ( 1.000000000000000000, 0.9996244530718883000, 0.9996244530718883000, 1.000000000000000000),
 ( 0.9984802751097328100, 0.9981052989096351700, 0.9981052989096351700, 0.9984802751097328100),
 ( 0.9984802751097328100, 0.9981052989096351700, 0.9981052989096351700, 0.9984802751097328100),
 ( 1.000000000000000000, 0.9996244530718883000, 0.9996244530718883000, 1.000000000000000000) ) ) 
 REPRESENTATION_ITEM ( '' )  SURFACE ( )  );
#176 = LINE ( 'NONE', #62, #65 ) ;
#177 = CALENDAR_DATE ( 2018, 13, 12 ) ;
#178 =( BOUNDED_SURFACE ( )  B_SPLINE_SURFACE ( 3, 3, ( 
 ( #134, #167, #71, #188 ),
 ( #165, #47, #102, #7 ),
 ( #191, #209, #27, #225 ),
 ( #87, #184, #4, #131 ) ),
 .UNSPECIFIED., .F., .F., .F. ) 
 B_SPLINE_SURFACE_WITH_KNOTS ( ( 4, 4 ),
 ( 4, 4 ),
 ( 0.0000000000000000000, 1.000000000000000000 ),
 ( 0.0000000000000000000, 1.000000000000000000 ),
 .UNSPECIFIED. ) 
 GEOMETRIC_REPRESENTATION_ITEM ( )  RATIONAL_B_SPLINE_SURFACE ( (
 ( 1.000000000000000000, 0.9996244530718883000, 0.9996244530718883000, 1.000000000000000000),
 ( 0.9984802751097328100, 0.9981052989096351700, 0.9981052989096351700, 0.9984802751097328100),
 ( 0.9984802751097328100, 0.9981052989096351700, 0.9981052989096351700, 0.9984802751097328100),
 ( 1.000000000000000000, 0.9996244530718883000, 0.9996244530718883000, 1.000000000000000000) ) ) 
 REPRESENTATION_ITEM ( '' )  SURFACE ( )  );
#179 = AXIS2_PLACEMENT_3D ( 'NONE', #31, #72, #55 ) ;
#180 = ORIENTED_EDGE ( 'NONE', *, *, #58, .F. ) ;
#181 = CARTESIAN_POINT ( 'NONE',  ( 9.992007221626412800E-016, 4.884981308350691100E-015, 0.8478325282172499700 ) ) ;
#182 = APPROVAL_PERSON_ORGANIZATION ( #41, #114, #56 ) ;
#183 = AXIS2_PLACEMENT_3D ( 'NONE', #181, #99, #219 ) ;
#184 = CARTESIAN_POINT ( 'NONE',  ( -17.00712559007763100, 25.70433922477759100, 1.153761104035860600 ) ) ;
#185 = PRODUCT ( '110-1535E UVFS pl-cx 50.8 F800', '110-1535E UVFS pl-cx 50.8 F800', '', ( #138 ) ) ;
#186 = PERSON_AND_ORGANIZATION ( #220, #211 ) ;
#187 = ADVANCED_FACE ( 'NONE', ( #60 ), #178, .T. ) ;
#188 = CARTESIAN_POINT ( 'NONE',  ( -5.898059818321144100E-014, -25.70433922477753400, 0.8682948160541010800 ) ) ;
#189 = ADVANCED_FACE ( 'NONE', ( #100 ), #122, .T. ) ;
#190 = CARTESIAN_POINT ( 'NONE',  ( 25.57161734840692100, -8.581154068350713300, 0.5688140559323412400 ) ) ;
#191 = CARTESIAN_POINT ( 'NONE',  ( -25.57161734840712000, 8.581154068350777200, 0.5688140559323323600 ) ) ;
#192 = COORDINATED_UNIVERSAL_TIME_OFFSET ( 2, 0, .AHEAD. ) ;
#193 = APPROVAL_STATUS ( 'not_yet_approved' ) ;
#194 = CC_DESIGN_PERSON_AND_ORGANIZATION_ASSIGNMENT ( #233, #78, ( #214 ) ) ;
#195 = PRODUCT_DEFINITION_SHAPE ( 'NONE', 'NONE',  #214 ) ;
#196 = DATE_AND_TIME ( #57, #48 ) ;
#197 = CARTESIAN_POINT ( 'NONE',  ( 25.39999999999999900, 4.884981308350691100E-015, 0.8478325282172499700 ) ) ;
#198 = APPROVAL ( #139, 'UNSPECIFIED' ) ;
#199 = APPROVAL_DATE_TIME ( #162, #114 ) ;
#200 = DIRECTION ( 'NONE',  ( -0.0000000000000000000, -0.0000000000000000000, -1.000000000000000000 ) ) ;
#201 = APPROVAL ( #193, 'UNSPECIFIED' ) ;
#202 = FACE_OUTER_BOUND ( 'NONE', #155, .T. ) ;
#203 = CARTESIAN_POINT ( 'NONE',  ( 17.00712559007749300, -25.70433922477753100, 1.153761104035880400 ) ) ;
#204 = ADVANCED_FACE ( 'NONE', ( #202 ), #161, .T. ) ;
#205 = SECURITY_CLASSIFICATION ( '', '', #36 ) ;
#206 = ORIENTED_EDGE ( 'NONE', *, *, #132, .F. ) ;
#207 = CARTESIAN_POINT ( 'NONE',  ( 17.05895571492837700, 8.581154068350771900, -0.003535869481847346800 ) ) ;
#208 = DIRECTION ( 'NONE',  ( 1.000000000000000000, 0.0000000000000000000, 0.0000000000000000000 ) ) ;
#209 = CARTESIAN_POINT ( 'NONE',  ( -17.05895571492852300, 8.581154068350771900, -0.003535869481867513400 ) ) ;
#210 =( NAMED_UNIT ( * ) SI_UNIT ( $, .STERADIAN. ) SOLID_ANGLE_UNIT ( ) );
#211 = ORGANIZATION ( 'UNSPECIFIED', 'UNSPECIFIED', '' ) ;
#212 = PERSON_AND_ORGANIZATION ( #220, #211 ) ;
#213 = VERTEX_POINT ( 'NONE', #12 ) ;
#214 = PRODUCT_DEFINITION ( 'UNKNOWN', '', #95, #157 ) ;
#215 = EDGE_LOOP ( 'NONE', ( #10, #40, #218 ) ) ;
#216 = CALENDAR_DATE ( 2018, 13, 12 ) ;
#217 = CARTESIAN_POINT ( 'NONE',  ( 2.842170943040400100E-014, -25.70433922477753400, 0.8682948160541048600 ) ) ;
#218 = ORIENTED_EDGE ( 'NONE', *, *, #64, .T. ) ;
#219 = DIRECTION ( 'NONE',  ( 1.000000000000000000, -8.881784197001252300E-016, 0.0000000000000000000 ) ) ;
#220 = PERSON ( 'UNSPECIFIED', 'UNSPECIFIED', 'UNSPECIFIED', ('UNSPECIFIED'), ('UNSPECIFIED'), ('UNSPECIFIED') ) ;
#221 = MANIFOLD_SOLID_BREP ( 'Imported1', #115 ) ;
#222 = DIRECTION ( 'NONE',  ( -0.0000000000000000000, -0.0000000000000000000, -1.000000000000000000 ) ) ;
#223 = CARTESIAN_POINT ( 'NONE',  ( 25.49392325376505800, 25.70433922477759500, 1.724372062036805300 ) ) ;
#224 = CARTESIAN_POINT ( 'NONE',  ( 25.49392325376505800, -25.70433922477753400, 1.724372062036805300 ) ) ;
#225 = CARTESIAN_POINT ( 'NONE',  ( -6.245004513516506800E-014, 8.581154068350777200, -0.2898721312442315600 ) ) ;
#226 = DIRECTION ( 'NONE',  ( 0.0000000000000000000, 0.0000000000000000000, 1.000000000000000000 ) ) ;
#227 = CC_DESIGN_PERSON_AND_ORGANIZATION_ASSIGNMENT ( #137, #35, ( #95 ) ) ;
#228 = CARTESIAN_POINT ( 'NONE',  ( 9.992007221626412800E-016, 4.884981308350691100E-015, 0.8478325282172499700 ) ) ;
#229 = APPLICATION_CONTEXT ( 'configuration controlled 3d designs of mechanical parts and assemblies' ) ;
#230 = CALENDAR_DATE ( 2018, 13, 12 ) ;
#231 = VERTEX_POINT ( 'NONE', #123 ) ;
#232 = EDGE_CURVE ( 'NONE', #79, #231, #82, .T. ) ;
#233 = PERSON_AND_ORGANIZATION ( #220, #211 ) ;
#234 = CC_DESIGN_APPROVAL ( #114, ( #205 ) ) ;
#235 = COORDINATED_UNIVERSAL_TIME_OFFSET ( 2, 0, .AHEAD. ) ;
ENDSEC;
END-ISO-10303-21;
