ISO-10303-21;
HEADER;
FILE_DESCRIPTION (( 'STEP AP203' ),
    '1' );
FILE_NAME ('110-1533E UVFS pl-cx 50.8 F700.STEP',
    '2018-12-13T15:09:21',
    ( '' ),
    ( '' ),
    'SwSTEP 2.0',
    'SolidWorks 2017',
    '' );
FILE_SCHEMA (( 'CONFIG_CONTROL_DESIGN' ));
ENDSEC;

DATA;
#1 = PERSON_AND_ORGANIZATION ( #54, #217 ) ;
#2 = CARTESIAN_POINT ( 'NONE',  ( 25.57751855604186600, -8.585111447616547800, 0.6503450171346589800 ) ) ;
#3 = ADVANCED_FACE ( 'NONE', ( #98 ), #19, .T. ) ;
#4 = CARTESIAN_POINT ( 'NONE',  ( 2.842170943040400100E-014, 8.585111447616547800, -0.3315369021699402000 ) ) ;
#5 = VERTEX_POINT ( 'NONE', #37 ) ;
#6 = CC_DESIGN_SECURITY_CLASSIFICATION ( #50, ( #42 ) ) ;
#7 = CC_DESIGN_PERSON_AND_ORGANIZATION_ASSIGNMENT ( #33, #155, ( #235 ) ) ;
#8 = ORIENTED_EDGE ( 'NONE', *, *, #65, .T. ) ;
#9 = CARTESIAN_POINT ( 'NONE',  ( -8.502427651173725600, 25.70419788836016700, 0.9926359363729068100 ) ) ;
#10 = DIRECTION ( 'NONE',  ( -0.0000000000000000000, -0.0000000000000000000, -1.000000000000000000 ) ) ;
#11 = CIRCLE ( 'NONE', #137, 25.39999999999999900 ) ;
#12 = CARTESIAN_POINT ( 'NONE',  ( -5.551115123125782700E-014, -8.585111447616547800, -0.3315369021699731700 ) ) ;
#13 = PERSON_AND_ORGANIZATION_ROLE ( 'creator' ) ;
#14 = VERTEX_POINT ( 'NONE', #140 ) ;
#15 = PERSON_AND_ORGANIZATION_ROLE ( 'design_supplier' ) ;
#16 = AXIS2_PLACEMENT_3D ( 'NONE', #180, #74, #94 ) ;
#17 = FACE_OUTER_BOUND ( 'NONE', #184, .T. ) ;
#18 = CC_DESIGN_APPROVAL ( #108, ( #42 ) ) ;
#19 =( BOUNDED_SURFACE ( )  B_SPLINE_SURFACE ( 3, 3, ( 
 ( #197, #77, #119, #213 ),
 ( #92, #216, #105, #2 ),
 ( #4, #125, #25, #179 ),
 ( #144, #73, #22, #143 ) ),
 .UNSPECIFIED., .F., .F., .F. ) 
 B_SPLINE_SURFACE_WITH_KNOTS ( ( 4, 4 ),
 ( 4, 4 ),
 ( 0.0000000000000000000, 1.000000000000000000 ),
 ( 0.0000000000000000000, 1.000000000000000000 ),
 .UNSPECIFIED. ) 
 GEOMETRIC_REPRESENTATION_ITEM ( )  RATIONAL_B_SPLINE_SURFACE ( (
 ( 1.000000000000000000, 0.9995093172716688100, 0.9995093172716688100, 1.000000000000000000),
 ( 0.9980145295802123100, 0.9975248210879237300, 0.9975248210879237300, 0.9980145295802123100),
 ( 0.9980145295802123100, 0.9975248210879237300, 0.9975248210879237300, 0.9980145295802123100),
 ( 1.000000000000000000, 0.9995093172716688100, 0.9995093172716688100, 1.000000000000000000) ) ) 
 REPRESENTATION_ITEM ( '' )  SURFACE ( )  );
#20 = EDGE_CURVE ( 'NONE', #124, #91, #182, .T. ) ;
#21 = ADVANCED_FACE ( 'NONE', ( #17 ), #161, .T. ) ;
#22 = CARTESIAN_POINT ( 'NONE',  ( 16.99859731075140300, 25.70419788836016700, 1.318790928844336500 ) ) ;
#23 = ADVANCED_FACE ( 'NONE', ( #187 ), #168, .T. ) ;
#24 = ORIENTED_EDGE ( 'NONE', *, *, #65, .F. ) ;
#25 = CARTESIAN_POINT ( 'NONE',  ( 17.06633303763079800, 8.585111447616547800, -0.004082252727594037700 ) ) ;
#26 = DIRECTION ( 'NONE',  ( 0.0000000000000000000, 0.0000000000000000000, 1.000000000000000000 ) ) ;
#27 = PERSON_AND_ORGANIZATION ( #54, #217 ) ;
#28 = CLOSED_SHELL ( 'NONE', ( #3, #23, #158, #21, #35 ) ) ;
#29 = DIRECTION ( 'NONE',  ( 0.0000000000000000000, 0.0000000000000000000, 1.000000000000000000 ) ) ;
#30 = CARTESIAN_POINT ( 'NONE',  ( -25.57751855604187000, -8.585111447616547800, 0.6503450171346691900 ) ) ;
#31 = PERSON_AND_ORGANIZATION_ROLE ( 'classification_officer' ) ;
#32 = AXIS2_PLACEMENT_3D ( 'NONE', #121, #40, #160 ) ;
#33 = PERSON_AND_ORGANIZATION ( #54, #217 ) ;
#34 = FACE_OUTER_BOUND ( 'NONE', #58, .T. ) ;
#35 = ADVANCED_FACE ( 'NONE', ( #34 ), #219, .T. ) ;
#36 = CARTESIAN_POINT ( 'NONE',  ( 9.992007221626412800E-016, 4.884981308350691100E-015, 0.9692460815580770100 ) ) ;
#37 = CARTESIAN_POINT ( 'NONE',  ( -25.39999999999999900, 7.995584178184967200E-015, 6.000000000000000000 ) ) ;
#38 = APPROVAL_PERSON_ORGANIZATION ( #194, #114, #193 ) ;
#39 = ORIENTED_EDGE ( 'NONE', *, *, #127, .T. ) ;
#40 = DIRECTION ( 'NONE',  ( 0.0000000000000000000, 0.0000000000000000000, 1.000000000000000000 ) ) ;
#41 = AXIS2_PLACEMENT_3D ( 'NONE', #43, #26, #107 ) ;
#42 = PRODUCT_DEFINITION_FORMATION_WITH_SPECIFIED_SOURCE ( 'ANY', '', #235, .NOT_KNOWN. ) ;
#43 = CARTESIAN_POINT ( 'NONE',  ( 0.0000000000000000000, 52.02000000000000300, 6.000000000000000000 ) ) ;
#44 = PRODUCT_RELATED_PRODUCT_CATEGORY ( 'detail', '', ( #235 ) ) ;
#45 = DIRECTION ( 'NONE',  ( -0.0000000000000000000, -0.0000000000000000000, -1.000000000000000000 ) ) ;
#46 = APPROVAL ( #173, 'UNSPECIFIED' ) ;
#47 = DIRECTION ( 'NONE',  ( 1.000000000000000000, 0.0000000000000000000, 0.0000000000000000000 ) ) ;
#48 = CARTESIAN_POINT ( 'NONE',  ( -8.502427651173723800, -25.70419788836016700, 0.9926359363728511900 ) ) ;
#49 = PERSON_AND_ORGANIZATION ( #54, #217 ) ;
#50 = SECURITY_CLASSIFICATION ( '', '', #230 ) ;
#51 = EDGE_LOOP ( 'NONE', ( #138, #76, #8, #57, #142 ) ) ;
#52 = DATE_TIME_ROLE ( 'classification_date' ) ;
#53 = LINE ( 'NONE', #170, #177 ) ;
#54 = PERSON ( 'UNSPECIFIED', 'UNSPECIFIED', 'UNSPECIFIED', ('UNSPECIFIED'), ('UNSPECIFIED'), ('UNSPECIFIED') ) ;
#55 = DIRECTION ( 'NONE',  ( 1.000000000000000000, 0.0000000000000000000, 0.0000000000000000000 ) ) ;
#56 = CALENDAR_DATE ( 2018, 13, 12 ) ;
#57 = ORIENTED_EDGE ( 'NONE', *, *, #127, .F. ) ;
#58 = EDGE_LOOP ( 'NONE', ( #61, #24 ) ) ;
#59 = CC_DESIGN_PERSON_AND_ORGANIZATION_ASSIGNMENT ( #27, #31, ( #50 ) ) ;
#60 = DIRECTION ( 'NONE',  ( 1.000000000000000000, 0.0000000000000000000, 0.0000000000000000000 ) ) ;
#61 = ORIENTED_EDGE ( 'NONE', *, *, #117, .F. ) ;
#62 = DIRECTION ( 'NONE',  ( 0.0000000000000000000, 0.0000000000000000000, 1.000000000000000000 ) ) ;
#63 = CARTESIAN_POINT ( 'NONE',  ( -17.06633303763081200, 8.585111447616547800, -0.004082252727584822900 ) ) ;
#64 = ORIENTED_EDGE ( 'NONE', *, *, #82, .T. ) ;
#65 = EDGE_CURVE ( 'NONE', #5, #93, #103, .T. ) ;
#66 = DIRECTION ( 'NONE',  ( -0.0000000000000000000, -0.0000000000000000000, -1.000000000000000000 ) ) ;
#67 = CALENDAR_DATE ( 2018, 13, 12 ) ;
#68 = VERTEX_POINT ( 'NONE', #162 ) ;
#69 = APPROVAL_ROLE ( '' ) ;
#70 = CIRCLE ( 'NONE', #210, 25.39999999999999900 ) ;
#71 = CALENDAR_DATE ( 2018, 13, 12 ) ;
#72 = APPLICATION_PROTOCOL_DEFINITION ( 'international standard', 'config_control_design', 1994, #211 ) ;
#73 = CARTESIAN_POINT ( 'NONE',  ( 8.502427651173702500, 25.70419788836016700, 0.9926359363728876100 ) ) ;
#74 = DIRECTION ( 'NONE',  ( -0.0000000000000000000, -0.0000000000000000000, -1.000000000000000000 ) ) ;
#75 = APPROVAL_DATE_TIME ( #166, #108 ) ;
#76 = ORIENTED_EDGE ( 'NONE', *, *, #192, .T. ) ;
#77 = CARTESIAN_POINT ( 'NONE',  ( 8.502427651173704200, -25.70419788836016700, 0.9926359363728321000 ) ) ;
#78 = MANIFOLD_SOLID_BREP ( 'Imported1', #28 ) ;
#79 = DATE_AND_TIME ( #123, #172 ) ;
#80 = CARTESIAN_POINT ( 'NONE',  ( 2.842170943040400100E-014, -25.39999999999994200, 0.9692460815580750100 ) ) ;
#81 = CARTESIAN_POINT ( 'NONE',  ( 25.39999999999999900, 4.884981308350691100E-015, 0.9692460815580770100 ) ) ;
#82 = EDGE_CURVE ( 'NONE', #14, #68, #70, .T. ) ;
#83 = CARTESIAN_POINT ( 'NONE',  ( -8.536307982983656100, -8.585111447616547800, -0.3315369021699709500 ) ) ;
#84 = ORIENTED_EDGE ( 'NONE', *, *, #20, .T. ) ;
#85 = CARTESIAN_POINT ( 'NONE',  ( -25.57751855604187000, 8.585111447616547800, 0.6503450171347190400 ) ) ;
#86 = CARTESIAN_POINT ( 'NONE',  ( -5.898059818321145400E-014, 8.585111447616547800, -0.3315369021699233200 ) ) ;
#87 = DIRECTION ( 'NONE',  ( 0.0000000000000000000, 0.0000000000000000000, 1.000000000000000000 ) ) ;
#88 = LOCAL_TIME ( 17, 9, 21.00000000000000000, #128 ) ;
#89 = CC_DESIGN_PERSON_AND_ORGANIZATION_ASSIGNMENT ( #214, #13, ( #42 ) ) ;
#90 = PERSON_AND_ORGANIZATION_ROLE ( 'creator' ) ;
#91 = VERTEX_POINT ( 'NONE', #201 ) ;
#92 = CARTESIAN_POINT ( 'NONE',  ( 2.842170943040400100E-014, -8.585111447616547800, -0.3315369021699900400 ) ) ;
#93 = VERTEX_POINT ( 'NONE', #218 ) ;
#94 = DIRECTION ( 'NONE',  ( 1.000000000000000000, 0.0000000000000000000, 0.0000000000000000000 ) ) ;
#95 = APPROVAL_PERSON_ORGANIZATION ( #1, #108, #191 ) ;
#96 = DIRECTION ( 'NONE',  ( -0.0000000000000000000, -0.0000000000000000000, -1.000000000000000000 ) ) ;
#97 = CC_DESIGN_DATE_AND_TIME_ASSIGNMENT ( #141, #52, ( #50 ) ) ;
#98 = FACE_OUTER_BOUND ( 'NONE', #115, .T. ) ;
#99 = CARTESIAN_POINT ( 'NONE',  ( 9.992007221626412800E-016, 4.884981308350691100E-015, 0.9692460815580770100 ) ) ;
#100 = FACE_OUTER_BOUND ( 'NONE', #207, .T. ) ;
#101 = DATE_TIME_ROLE ( 'creation_date' ) ;
#102 =( GEOMETRIC_REPRESENTATION_CONTEXT ( 3 ) GLOBAL_UNCERTAINTY_ASSIGNED_CONTEXT ( ( #154 ) ) GLOBAL_UNIT_ASSIGNED_CONTEXT ( ( #226, #227, #153 ) ) REPRESENTATION_CONTEXT ( 'NONE', 'WORKASPACE' ) );
#103 = CIRCLE ( 'NONE', #131, 25.39999999999999900 ) ;
#104 = DIRECTION ( 'NONE',  ( 0.0000000000000000000, 0.0000000000000000000, 1.000000000000000000 ) ) ;
#105 = CARTESIAN_POINT ( 'NONE',  ( 17.06633303763079800, -8.585111447616547800, -0.004082252727644020300 ) ) ;
#106 = ORIENTED_EDGE ( 'NONE', *, *, #117, .T. ) ;
#107 = DIRECTION ( 'NONE',  ( 1.000000000000000000, 0.0000000000000000000, -0.0000000000000000000 ) ) ;
#108 = APPROVAL ( #116, 'UNSPECIFIED' ) ;
#109 = DIRECTION ( 'NONE',  ( 1.000000000000000000, -8.881784197001252300E-016, 0.0000000000000000000 ) ) ;
#110 = LOCAL_TIME ( 17, 9, 21.00000000000000000, #181 ) ;
#111 = ORIENTED_EDGE ( 'NONE', *, *, #174, .T. ) ;
#112 = CARTESIAN_POINT ( 'NONE',  ( -25.47600220760635600, 25.70419788836016300, 1.970620797922539900 ) ) ;
#113 = PERSON_AND_ORGANIZATION ( #54, #217 ) ;
#114 = APPROVAL ( #135, 'UNSPECIFIED' ) ;
#115 = EDGE_LOOP ( 'NONE', ( #157, #148, #64 ) ) ;
#116 = APPROVAL_STATUS ( 'not_yet_approved' ) ;
#117 = EDGE_CURVE ( 'NONE', #93, #5, #129, .T. ) ;
#118 = LOCAL_TIME ( 17, 9, 21.00000000000000000, #176 ) ;
#119 = CARTESIAN_POINT ( 'NONE',  ( 16.99859731075140700, -25.70419788836016700, 1.318790928844280500 ) ) ;
#120 = AXIS2_PLACEMENT_3D ( 'NONE', #36, #104, #55 ) ;
#121 = CARTESIAN_POINT ( 'NONE',  ( 9.992007221626412800E-016, 4.884981308350691100E-015, 0.9692460815580770100 ) ) ;
#122 = PRODUCT_DEFINITION_SHAPE ( 'NONE', 'NONE',  #205 ) ;
#123 = CALENDAR_DATE ( 2018, 13, 12 ) ;
#124 = VERTEX_POINT ( 'NONE', #80 ) ;
#125 = CARTESIAN_POINT ( 'NONE',  ( 8.536307982983636600, 8.585111447616547800, -0.3315369021699401400 ) ) ;
#126 = APPROVAL_PERSON_ORGANIZATION ( #113, #46, #69 ) ;
#127 = EDGE_CURVE ( 'NONE', #68, #93, #199, .T. ) ;
#128 = COORDINATED_UNIVERSAL_TIME_OFFSET ( 2, 0, .AHEAD. ) ;
#129 = CIRCLE ( 'NONE', #200, 25.39999999999999900 ) ;
#130 = CARTESIAN_POINT ( 'NONE',  ( -8.536307982983657900, 8.585111447616547800, -0.3315369021699209900 ) ) ;
#131 = AXIS2_PLACEMENT_3D ( 'NONE', #164, #96, #60 ) ;
#132 = CARTESIAN_POINT ( 'NONE',  ( -5.551115123125782700E-014, -25.70419788836016700, 0.9926359363728489700 ) ) ;
#133 = PERSON_AND_ORGANIZATION ( #54, #217 ) ;
#134 = APPLICATION_PROTOCOL_DEFINITION ( 'international standard', 'config_control_design', 1994, #232 ) ;
#135 = APPROVAL_STATUS ( 'not_yet_approved' ) ;
#136 = CALENDAR_DATE ( 2018, 13, 12 ) ;
#137 = AXIS2_PLACEMENT_3D ( 'NONE', #167, #66, #169 ) ;
#138 = ORIENTED_EDGE ( 'NONE', *, *, #174, .F. ) ;
#139 = CC_DESIGN_APPROVAL ( #114, ( #50 ) ) ;
#140 = CARTESIAN_POINT ( 'NONE',  ( 2.842170943040400100E-014, 25.39999999999989600, 0.9692460815580750100 ) ) ;
#141 = DATE_AND_TIME ( #71, #88 ) ;
#142 = ORIENTED_EDGE ( 'NONE', *, *, #82, .F. ) ;
#143 = CARTESIAN_POINT ( 'NONE',  ( 25.47600220760634900, 25.70419788836016300, 1.970620797922529400 ) ) ;
#144 = CARTESIAN_POINT ( 'NONE',  ( 2.842170943040400100E-014, 25.70419788836016300, 0.9926359363728876100 ) ) ;
#145 = SHAPE_DEFINITION_REPRESENTATION ( #122, #195 ) ;
#146 = CC_DESIGN_PERSON_AND_ORGANIZATION_ASSIGNMENT ( #49, #15, ( #42 ) ) ;
#147 = CARTESIAN_POINT ( 'NONE',  ( 9.992007221626412800E-016, 4.884981308350691100E-015, 6.000000000000000000 ) ) ;
#148 = ORIENTED_EDGE ( 'NONE', *, *, #171, .T. ) ;
#149 =( BOUNDED_SURFACE ( )  B_SPLINE_SURFACE ( 3, 3, ( 
 ( #185, #224, #48, #132 ),
 ( #30, #229, #83, #12 ),
 ( #85, #63, #130, #86 ),
 ( #112, #202, #9, #222 ) ),
 .UNSPECIFIED., .F., .F., .F. ) 
 B_SPLINE_SURFACE_WITH_KNOTS ( ( 4, 4 ),
 ( 4, 4 ),
 ( 0.0000000000000000000, 1.000000000000000000 ),
 ( 0.0000000000000000000, 1.000000000000000000 ),
 .UNSPECIFIED. ) 
 GEOMETRIC_REPRESENTATION_ITEM ( )  RATIONAL_B_SPLINE_SURFACE ( (
 ( 1.000000000000000000, 0.9995093172716688100, 0.9995093172716688100, 1.000000000000000000),
 ( 0.9980145295802123100, 0.9975248210879237300, 0.9975248210879237300, 0.9980145295802123100),
 ( 0.9980145295802123100, 0.9975248210879237300, 0.9975248210879237300, 0.9980145295802123100),
 ( 1.000000000000000000, 0.9995093172716688100, 0.9995093172716688100, 1.000000000000000000) ) ) 
 REPRESENTATION_ITEM ( '' )  SURFACE ( )  );
#150 = DIRECTION ( 'NONE',  ( 0.0000000000000000000, -1.000000000000000000, 3.331002174092878400E-016 ) ) ;
#151 = ORIENTED_EDGE ( 'NONE', *, *, #192, .F. ) ;
#152 = CARTESIAN_POINT ( 'NONE',  ( 0.0000000000000000000, 0.0000000000000000000, 0.0000000000000000000 ) ) ;
#153 =( NAMED_UNIT ( * ) SI_UNIT ( $, .STERADIAN. ) SOLID_ANGLE_UNIT ( ) );
#154 = UNCERTAINTY_MEASURE_WITH_UNIT (LENGTH_MEASURE( 1.000000000000000100E-005 ), #226, 'distance_accuracy_value', 'NONE');
#155 = PERSON_AND_ORGANIZATION_ROLE ( 'design_owner' ) ;
#156 = ORIENTED_EDGE ( 'NONE', *, *, #20, .F. ) ;
#157 = ORIENTED_EDGE ( 'NONE', *, *, #208, .T. ) ;
#158 = ADVANCED_FACE ( 'NONE', ( #100 ), #149, .T. ) ;
#159 = CC_DESIGN_PERSON_AND_ORGANIZATION_ASSIGNMENT ( #133, #90, ( #205 ) ) ;
#160 = DIRECTION ( 'NONE',  ( 1.000000000000000000, 0.0000000000000000000, 0.0000000000000000000 ) ) ;
#161 = CYLINDRICAL_SURFACE ( 'NONE', #120, 25.39999999999999900 ) ;
#162 = CARTESIAN_POINT ( 'NONE',  ( 25.39999999999999900, 4.884981308350691100E-015, 0.9692460815580770100 ) ) ;
#163 = COORDINATED_UNIVERSAL_TIME_OFFSET ( 2, 0, .AHEAD. ) ;
#164 = CARTESIAN_POINT ( 'NONE',  ( 9.992007221626412800E-016, 4.884981308350691100E-015, 6.000000000000000000 ) ) ;
#165 = DIRECTION ( 'NONE',  ( -0.0000000000000000000, -0.0000000000000000000, -1.000000000000000000 ) ) ;
#166 = DATE_AND_TIME ( #56, #233 ) ;
#167 = CARTESIAN_POINT ( 'NONE',  ( 9.992007221626412800E-016, 4.884981308350691100E-015, 0.9692460815580770100 ) ) ;
#168 = CYLINDRICAL_SURFACE ( 'NONE', #32, 25.39999999999999900 ) ;
#169 = DIRECTION ( 'NONE',  ( 1.000000000000000000, 0.0000000000000000000, 0.0000000000000000000 ) ) ;
#170 = CARTESIAN_POINT ( 'NONE',  ( -25.39999999999999900, 7.995584178184967200E-015, 0.9692460815580770100 ) ) ;
#171 = EDGE_CURVE ( 'NONE', #124, #14, #196, .T. ) ;
#172 = LOCAL_TIME ( 17, 9, 21.00000000000000000, #163 ) ;
#173 = APPROVAL_STATUS ( 'not_yet_approved' ) ;
#174 = EDGE_CURVE ( 'NONE', #91, #14, #223, .T. ) ;
#175 = DIRECTION ( 'NONE',  ( 1.000000000000000000, 0.0000000000000000000, 0.0000000000000000000 ) ) ;
#176 = COORDINATED_UNIVERSAL_TIME_OFFSET ( 2, 0, .AHEAD. ) ;
#177 = VECTOR ( 'NONE', #62, 1000.000000000000000 ) ;
#178 = APPROVAL_DATE_TIME ( #221, #46 ) ;
#179 = CARTESIAN_POINT ( 'NONE',  ( 25.57751855604186300, 8.585111447616547800, 0.6503450171347089400 ) ) ;
#180 = CARTESIAN_POINT ( 'NONE',  ( 9.992007221626412800E-016, 4.884981308350691100E-015, 0.9692460815580770100 ) ) ;
#181 = COORDINATED_UNIVERSAL_TIME_OFFSET ( 2, 0, .AHEAD. ) ;
#182 = CIRCLE ( 'NONE', #16, 25.39999999999999900 ) ;
#183 = CARTESIAN_POINT ( 'NONE',  ( 9.992007221626412800E-016, 4.884981308350691100E-015, 0.9692460815580770100 ) ) ;
#184 = EDGE_LOOP ( 'NONE', ( #151, #156, #190, #39, #106 ) ) ;
#185 = CARTESIAN_POINT ( 'NONE',  ( -25.47600220760636000, -25.70419788836016700, 1.970620797922484300 ) ) ;
#186 = CARTESIAN_POINT ( 'NONE',  ( 2.842170943040400100E-014, -5.684341886080800200E-014, 333.3000000000000700 ) ) ;
#187 = FACE_OUTER_BOUND ( 'NONE', #51, .T. ) ;
#188 = MECHANICAL_CONTEXT ( 'NONE', #211, 'mechanical' ) ;
#189 = AXIS2_PLACEMENT_3D ( 'NONE', #99, #10, #204 ) ;
#190 = ORIENTED_EDGE ( 'NONE', *, *, #208, .F. ) ;
#191 = APPROVAL_ROLE ( '' ) ;
#192 = EDGE_CURVE ( 'NONE', #91, #5, #53, .T. ) ;
#193 = APPROVAL_ROLE ( '' ) ;
#194 = PERSON_AND_ORGANIZATION ( #54, #217 ) ;
#195 = ADVANCED_BREP_SHAPE_REPRESENTATION ( '110-1533E UVFS pl-cx 50.8 F700', ( #78, #231 ), #102 ) ;
#196 = CIRCLE ( 'NONE', #212, 333.3000000000000700 ) ;
#197 = CARTESIAN_POINT ( 'NONE',  ( 2.842170943040400100E-014, -25.70419788836016700, 0.9926359363728321000 ) ) ;
#198 = CC_DESIGN_APPROVAL ( #46, ( #205 ) ) ;
#199 = LINE ( 'NONE', #81, #215 ) ;
#200 = AXIS2_PLACEMENT_3D ( 'NONE', #147, #165, #220 ) ;
#201 = CARTESIAN_POINT ( 'NONE',  ( -25.39999999999999900, 7.995584178184967200E-015, 0.9692460815580770100 ) ) ;
#202 = CARTESIAN_POINT ( 'NONE',  ( -16.99859731075142100, 25.70419788836016700, 1.318790928844345800 ) ) ;
#203 = ORIENTED_EDGE ( 'NONE', *, *, #171, .F. ) ;
#204 = DIRECTION ( 'NONE',  ( 1.000000000000000000, 0.0000000000000000000, 0.0000000000000000000 ) ) ;
#205 = PRODUCT_DEFINITION ( 'UNKNOWN', '', #42, #234 ) ;
#206 = DATE_AND_TIME ( #67, #118 ) ;
#207 = EDGE_LOOP ( 'NONE', ( #203, #84, #111 ) ) ;
#208 = EDGE_CURVE ( 'NONE', #68, #124, #11, .T. ) ;
#209 = APPROVAL_DATE_TIME ( #79, #114 ) ;
#210 = AXIS2_PLACEMENT_3D ( 'NONE', #183, #45, #109 ) ;
#211 = APPLICATION_CONTEXT ( 'configuration controlled 3d designs of mechanical parts and assemblies' ) ;
#212 = AXIS2_PLACEMENT_3D ( 'NONE', #186, #47, #150 ) ;
#213 = CARTESIAN_POINT ( 'NONE',  ( 25.47600220760635600, -25.70419788836016700, 1.970620797922473900 ) ) ;
#214 = PERSON_AND_ORGANIZATION ( #54, #217 ) ;
#215 = VECTOR ( 'NONE', #29, 1000.000000000000000 ) ;
#216 = CARTESIAN_POINT ( 'NONE',  ( 8.536307982983638400, -8.585111447616547800, -0.3315369021699900400 ) ) ;
#217 = ORGANIZATION ( 'UNSPECIFIED', 'UNSPECIFIED', '' ) ;
#218 = CARTESIAN_POINT ( 'NONE',  ( 25.39999999999999900, 4.884981308350691100E-015, 6.000000000000000000 ) ) ;
#219 = PLANE ( 'NONE',  #41 ) ;
#220 = DIRECTION ( 'NONE',  ( 1.000000000000000000, 0.0000000000000000000, 0.0000000000000000000 ) ) ;
#221 = DATE_AND_TIME ( #136, #110 ) ;
#222 = CARTESIAN_POINT ( 'NONE',  ( -5.898059818321144100E-014, 25.70419788836016300, 0.9926359363729047000 ) ) ;
#223 = CIRCLE ( 'NONE', #189, 25.39999999999999900 ) ;
#224 = CARTESIAN_POINT ( 'NONE',  ( -16.99859731075142100, -25.70419788836016700, 1.318790928844290100 ) ) ;
#225 = CC_DESIGN_DATE_AND_TIME_ASSIGNMENT ( #206, #101, ( #205 ) ) ;
#226 =( LENGTH_UNIT ( ) NAMED_UNIT ( * ) SI_UNIT ( .MILLI., .METRE. ) );
#227 =( NAMED_UNIT ( * ) PLANE_ANGLE_UNIT ( ) SI_UNIT ( $, .RADIAN. ) );
#228 = COORDINATED_UNIVERSAL_TIME_OFFSET ( 2, 0, .AHEAD. ) ;
#229 = CARTESIAN_POINT ( 'NONE',  ( -17.06633303763081200, -8.585111447616547800, -0.004082252727634697900 ) ) ;
#230 = SECURITY_CLASSIFICATION_LEVEL ( 'unclassified' ) ;
#231 = AXIS2_PLACEMENT_3D ( 'NONE', #152, #87, #175 ) ;
#232 = APPLICATION_CONTEXT ( 'configuration controlled 3d designs of mechanical parts and assemblies' ) ;
#233 = LOCAL_TIME ( 17, 9, 21.00000000000000000, #228 ) ;
#234 = DESIGN_CONTEXT ( 'detailed design', #232, 'design' ) ;
#235 = PRODUCT ( '110-1533E UVFS pl-cx 50.8 F700', '110-1533E UVFS pl-cx 50.8 F700', '', ( #188 ) ) ;
ENDSEC;
END-ISO-10303-21;
