ISO-10303-21;
HEADER;
FILE_DESCRIPTION (( 'STEP AP203' ),
    '1' );
FILE_NAME ('110-1531E UVFS pl-cx 50.8 F600.STEP',
    '2018-12-13T15:09:30',
    ( '' ),
    ( '' ),
    'SwSTEP 2.0',
    'SolidWorks 2017',
    '' );
FILE_SCHEMA (( 'CONFIG_CONTROL_DESIGN' ));
ENDSEC;

DATA;
#1 = CC_DESIGN_APPROVAL ( #201, ( #91 ) ) ;
#2 = CALENDAR_DATE ( 2018, 13, 12 ) ;
#3 = ORIENTED_EDGE ( 'NONE', *, *, #150, .F. ) ;
#4 = CC_DESIGN_APPROVAL ( #224, ( #178 ) ) ;
#5 = EDGE_CURVE ( 'NONE', #108, #193, #185, .T. ) ;
#6 = DIRECTION ( 'NONE',  ( 1.000000000000000000, -1.776356839400250500E-015, 0.0000000000000000000 ) ) ;
#7 = AXIS2_PLACEMENT_3D ( 'NONE', #12, #229, #130 ) ;
#8 = ORIENTED_EDGE ( 'NONE', *, *, #152, .T. ) ;
#9 = CARTESIAN_POINT ( 'NONE',  ( 9.992007221626412800E-016, 4.884981308350691100E-015, 1.131724088607730000 ) ) ;
#10 = EDGE_LOOP ( 'NONE', ( #64, #55, #198 ) ) ;
#11 = CARTESIAN_POINT ( 'NONE',  ( 8.496965257407195400, 25.70397927596625100, 1.159029938757496300 ) ) ;
#12 = CARTESIAN_POINT ( 'NONE',  ( 0.0000000000000000000, -5.684341886080800200E-014, 285.6000000000000200 ) ) ;
#13 = COORDINATED_UNIVERSAL_TIME_OFFSET ( 2, 0, .AHEAD. ) ;
#14 = ORIENTED_EDGE ( 'NONE', *, *, #42, .T. ) ;
#15 = PERSON_AND_ORGANIZATION_ROLE ( 'creator' ) ;
#16 = ORIENTED_EDGE ( 'NONE', *, *, #152, .F. ) ;
#17 = EDGE_CURVE ( 'NONE', #134, #172, #121, .T. ) ;
#18 = DATE_AND_TIME ( #36, #80 ) ;
#19 = EDGE_LOOP ( 'NONE', ( #37, #141 ) ) ;
#20 = ADVANCED_FACE ( 'NONE', ( #138 ), #156, .T. ) ;
#21 = PRODUCT ( '110-1531E UVFS pl-cx 50.8 F600', '110-1531E UVFS pl-cx 50.8 F600', '', ( #190 ) ) ;
#22 = ORIENTED_EDGE ( 'NONE', *, *, #114, .T. ) ;
#23 = CARTESIAN_POINT ( 'NONE',  ( 25.44829746892326800, -25.70397927596632900, 2.299718310563895000 ) ) ;
#24 = ADVANCED_BREP_SHAPE_REPRESENTATION ( '110-1531E UVFS pl-cx 50.8 F600', ( #74, #44 ), #203 ) ;
#25 = CC_DESIGN_PERSON_AND_ORGANIZATION_ASSIGNMENT ( #117, #164, ( #178 ) ) ;
#26 = LOCAL_TIME ( 17, 9, 30.00000000000000000, #78 ) ;
#27 = DIRECTION ( 'NONE',  ( 1.000000000000000000, 8.881784197001252300E-016, 0.0000000000000000000 ) ) ;
#28 = CARTESIAN_POINT ( 'NONE',  ( -8.496965257407227400, -25.70397927596633300, 1.159029938757516000 ) ) ;
#29 = CARTESIAN_POINT ( 'NONE',  ( 5.849884527466956900E-014, 25.70397927596624400, 1.159029938757494300 ) ) ;
#30 = AXIS2_PLACEMENT_3D ( 'NONE', #82, #202, #111 ) ;
#31 = CARTESIAN_POINT ( 'NONE',  ( -6.938893903907228400E-015, 25.70397927596624400, 1.159029938757515600 ) ) ;
#32 = CARTESIAN_POINT ( 'NONE',  ( -8.543160741625492000, -8.591236556929118300, -0.3873913946754580200 ) ) ;
#33 = CC_DESIGN_PERSON_AND_ORGANIZATION_ASSIGNMENT ( #227, #94, ( #21 ) ) ;
#34 = DIRECTION ( 'NONE',  ( 1.000000000000000000, 0.0000000000000000000, 0.0000000000000000000 ) ) ;
#35 = APPLICATION_PROTOCOL_DEFINITION ( 'international standard', 'config_control_design', 1994, #235 ) ;
#36 = CALENDAR_DATE ( 2018, 13, 12 ) ;
#37 = ORIENTED_EDGE ( 'NONE', *, *, #181, .F. ) ;
#38 = EDGE_CURVE ( 'NONE', #60, #231, #54, .T. ) ;
#39 = SHAPE_DEFINITION_REPRESENTATION ( #219, #24 ) ;
#40 = CIRCLE ( 'NONE', #194, 25.39999999999999900 ) ;
#41 = DATE_AND_TIME ( #2, #51 ) ;
#42 = EDGE_CURVE ( 'NONE', #60, #172, #127, .T. ) ;
#43 = CARTESIAN_POINT ( 'NONE',  ( 25.39999999999999900, 4.884981308350691100E-015, 1.131724088607730000 ) ) ;
#44 = AXIS2_PLACEMENT_3D ( 'NONE', #209, #226, #34 ) ;
#45 = COORDINATED_UNIVERSAL_TIME_OFFSET ( 2, 0, .AHEAD. ) ;
#46 = CIRCLE ( 'NONE', #79, 25.39999999999999900 ) ;
#47 = CARTESIAN_POINT ( 'NONE',  ( 0.0000000000000000000, 52.02000000000000300, 6.000000000000000000 ) ) ;
#48 = CARTESIAN_POINT ( 'NONE',  ( -8.543160741625492000, 8.591236556929031200, -0.3873913946754595200 ) ) ;
#49 = EDGE_CURVE ( 'NONE', #193, #60, #40, .T. ) ;
#50 = CARTESIAN_POINT ( 'NONE',  ( -25.58665232721627800, 8.591236556929034800, 0.7594985620593707200 ) ) ;
#51 = LOCAL_TIME ( 17, 9, 30.00000000000000000, #13 ) ;
#52 = CARTESIAN_POINT ( 'NONE',  ( -6.938893903907228400E-015, -25.70397927596632900, 1.159029938757515600 ) ) ;
#53 = CIRCLE ( 'NONE', #212, 25.39999999999999900 ) ;
#54 = CIRCLE ( 'NONE', #217, 25.39999999999999900 ) ;
#55 = ORIENTED_EDGE ( 'NONE', *, *, #150, .T. ) ;
#56 = EDGE_LOOP ( 'NONE', ( #3, #22, #151 ) ) ;
#57 = EDGE_LOOP ( 'NONE', ( #16, #103, #147, #14, #118 ) ) ;
#58 = AXIS2_PLACEMENT_3D ( 'NONE', #158, #69, #104 ) ;
#59 = DIRECTION ( 'NONE',  ( -0.0000000000000000000, -0.0000000000000000000, -1.000000000000000000 ) ) ;
#60 = VERTEX_POINT ( 'NONE', #179 ) ;
#61 = CARTESIAN_POINT ( 'NONE',  ( 16.98540743444439700, -25.70397927596633300, 1.539513831557069800 ) ) ;
#62 = DIRECTION ( 'NONE',  ( -0.0000000000000000000, -0.0000000000000000000, -1.000000000000000000 ) ) ;
#63 = DIRECTION ( 'NONE',  ( 0.0000000000000000000, 0.0000000000000000000, 1.000000000000000000 ) ) ;
#64 = ORIENTED_EDGE ( 'NONE', *, *, #38, .T. ) ;
#65 = CARTESIAN_POINT ( 'NONE',  ( -3.469446951953614200E-015, 8.591236556929034800, -0.3873913946754595800 ) ) ;
#66 = CARTESIAN_POINT ( 'NONE',  ( -16.98540743444451500, 25.70397927596625100, 1.539513831557075600 ) ) ;
#67 = LOCAL_TIME ( 17, 9, 30.00000000000000000, #45 ) ;
#68 = ORIENTED_EDGE ( 'NONE', *, *, #5, .F. ) ;
#69 = DIRECTION ( 'NONE',  ( 0.0000000000000000000, 0.0000000000000000000, 1.000000000000000000 ) ) ;
#70 = AXIS2_PLACEMENT_3D ( 'NONE', #225, #142, #206 ) ;
#71 = DATE_TIME_ROLE ( 'classification_date' ) ;
#72 = PERSON_AND_ORGANIZATION_ROLE ( 'design_supplier' ) ;
#73 = APPLICATION_PROTOCOL_DEFINITION ( 'international standard', 'config_control_design', 1994, #189 ) ;
#74 = MANIFOLD_SOLID_BREP ( 'Imported1', #77 ) ;
#75 =( LENGTH_UNIT ( ) NAMED_UNIT ( * ) SI_UNIT ( .MILLI., .METRE. ) );
#76 = PERSON_AND_ORGANIZATION ( #136, #95 ) ;
#77 = CLOSED_SHELL ( 'NONE', ( #96, #195, #170, #191, #20 ) ) ;
#78 = COORDINATED_UNIVERSAL_TIME_OFFSET ( 2, 0, .AHEAD. ) ;
#79 = AXIS2_PLACEMENT_3D ( 'NONE', #132, #182, #90 ) ;
#80 = LOCAL_TIME ( 17, 9, 30.00000000000000000, #97 ) ;
#81 = CARTESIAN_POINT ( 'NONE',  ( 5.881688617536847600E-014, -8.591236556929118300, -0.3873913946754795100 ) ) ;
#82 = CARTESIAN_POINT ( 'NONE',  ( 9.992007221626412800E-016, 4.884981308350691100E-015, 6.000000000000000000 ) ) ;
#83 = LINE ( 'NONE', #159, #216 ) ;
#84 = FACE_OUTER_BOUND ( 'NONE', #10, .T. ) ;
#85 = DIRECTION ( 'NONE',  ( 1.000000000000000000, 0.0000000000000000000, -0.0000000000000000000 ) ) ;
#86 = CARTESIAN_POINT ( 'NONE',  ( -17.07775206541669300, -8.591236556929118300, -0.004838923609110590300 ) ) ;
#87 = CARTESIAN_POINT ( 'NONE',  ( -25.44829746892346700, -25.70397927596632900, 2.299718310563914100 ) ) ;
#88 = APPROVAL_PERSON_ORGANIZATION ( #192, #128, #148 ) ;
#89 = CARTESIAN_POINT ( 'NONE',  ( 5.850446106448585900E-014, -25.39999999999967200, 1.131724088607731500 ) ) ;
#90 = DIRECTION ( 'NONE',  ( 1.000000000000000000, 0.0000000000000000000, 0.0000000000000000000 ) ) ;
#91 = SECURITY_CLASSIFICATION ( '', '', #234 ) ;
#92 = APPROVAL_DATE_TIME ( #125, #201 ) ;
#93 = VECTOR ( 'NONE', #175, 1000.000000000000000 ) ;
#94 = PERSON_AND_ORGANIZATION_ROLE ( 'design_owner' ) ;
#95 = ORGANIZATION ( 'UNSPECIFIED', 'UNSPECIFIED', '' ) ;
#96 = ADVANCED_FACE ( 'NONE', ( #84 ), #168, .T. ) ;
#97 = COORDINATED_UNIVERSAL_TIME_OFFSET ( 2, 0, .AHEAD. ) ;
#98 = ORIENTED_EDGE ( 'NONE', *, *, #42, .F. ) ;
#99 = CARTESIAN_POINT ( 'NONE',  ( 5.881688617536847600E-014, 8.591236556929034800, -0.3873913946754812300 ) ) ;
#100 = CARTESIAN_POINT ( 'NONE',  ( -17.07775206541669300, 8.591236556929031200, -0.004838923609112108200 ) ) ;
#101 = CARTESIAN_POINT ( 'NONE',  ( -25.39999999999999900, 7.995584178184967200E-015, 1.131724088607730000 ) ) ;
#102 = CARTESIAN_POINT ( 'NONE',  ( -3.469446951953614200E-015, -8.591236556929118300, -0.3873913946754580200 ) ) ;
#103 = ORIENTED_EDGE ( 'NONE', *, *, #114, .F. ) ;
#104 = DIRECTION ( 'NONE',  ( 1.000000000000000000, 0.0000000000000000000, 0.0000000000000000000 ) ) ;
#105 = CC_DESIGN_PERSON_AND_ORGANIZATION_ASSIGNMENT ( #133, #72, ( #119 ) ) ;
#106 = PERSON_AND_ORGANIZATION_ROLE ( 'classification_officer' ) ;
#107 = FACE_OUTER_BOUND ( 'NONE', #57, .T. ) ;
#108 = VERTEX_POINT ( 'NONE', #101 ) ;
#109 = CC_DESIGN_DATE_AND_TIME_ASSIGNMENT ( #137, #233, ( #178 ) ) ;
#110 = APPROVAL_PERSON_ORGANIZATION ( #218, #224, #215 ) ;
#111 = DIRECTION ( 'NONE',  ( 1.000000000000000000, 0.0000000000000000000, 0.0000000000000000000 ) ) ;
#112 = CARTESIAN_POINT ( 'NONE',  ( 8.543160741625461800, 8.591236556929031200, -0.3873913946754795600 ) ) ;
#113 = CARTESIAN_POINT ( 'NONE',  ( -25.39999999999999900, 7.995584178184967200E-015, 6.000000000000000000 ) ) ;
#114 = EDGE_CURVE ( 'NONE', #231, #108, #46, .T. ) ;
#115 = PERSON_AND_ORGANIZATION ( #136, #95 ) ;
#116 = DIRECTION ( 'NONE',  ( -0.0000000000000000000, -0.0000000000000000000, -1.000000000000000000 ) ) ;
#117 = PERSON_AND_ORGANIZATION ( #136, #95 ) ;
#118 = ORIENTED_EDGE ( 'NONE', *, *, #181, .T. ) ;
#119 = PRODUCT_DEFINITION_FORMATION_WITH_SPECIFIED_SOURCE ( 'ANY', '', #21, .NOT_KNOWN. ) ;
#120 =( NAMED_UNIT ( * ) PLANE_ANGLE_UNIT ( ) SI_UNIT ( $, .RADIAN. ) );
#121 = CIRCLE ( 'NONE', #30, 25.39999999999999900 ) ;
#122 = AXIS2_PLACEMENT_3D ( 'NONE', #47, #63, #85 ) ;
#123 = CALENDAR_DATE ( 2018, 13, 12 ) ;
#124 = CARTESIAN_POINT ( 'NONE',  ( 9.992007221626412800E-016, 4.884981308350691100E-015, 1.131724088607730000 ) ) ;
#125 = DATE_AND_TIME ( #171, #26 ) ;
#126 = CARTESIAN_POINT ( 'NONE',  ( 25.58665232721607600, 8.591236556929034800, 0.7594985620593512900 ) ) ;
#127 = LINE ( 'NONE', #43, #93 ) ;
#128 = APPROVAL ( #214, 'UNSPECIFIED' ) ;
#129 = CARTESIAN_POINT ( 'NONE',  ( 25.44829746892326800, 25.70397927596624400, 2.299718310563895000 ) ) ;
#130 = DIRECTION ( 'NONE',  ( 0.0000000000000000000, -1.000000000000000000, 0.0000000000000000000 ) ) ;
#131 = CARTESIAN_POINT ( 'NONE',  ( -16.98540743444451500, -25.70397927596633300, 1.539513831557075600 ) ) ;
#132 = CARTESIAN_POINT ( 'NONE',  ( 9.992007221626412800E-016, 4.884981308350691100E-015, 1.131724088607730000 ) ) ;
#133 = PERSON_AND_ORGANIZATION ( #136, #95 ) ;
#134 = VERTEX_POINT ( 'NONE', #113 ) ;
#135 = APPROVAL_ROLE ( '' ) ;
#136 = PERSON ( 'UNSPECIFIED', 'UNSPECIFIED', 'UNSPECIFIED', ('UNSPECIFIED'), ('UNSPECIFIED'), ('UNSPECIFIED') ) ;
#137 = DATE_AND_TIME ( #123, #153 ) ;
#138 = FACE_OUTER_BOUND ( 'NONE', #19, .T. ) ;
#139 = CC_DESIGN_DATE_AND_TIME_ASSIGNMENT ( #18, #71, ( #91 ) ) ;
#140 = PERSON_AND_ORGANIZATION ( #136, #95 ) ;
#141 = ORIENTED_EDGE ( 'NONE', *, *, #17, .F. ) ;
#142 = DIRECTION ( 'NONE',  ( 0.0000000000000000000, 0.0000000000000000000, 1.000000000000000000 ) ) ;
#143 = ORIENTED_EDGE ( 'NONE', *, *, #17, .T. ) ;
#144 = CARTESIAN_POINT ( 'NONE',  ( -25.58665232721627800, -8.591236556929118300, 0.7594985620593721600 ) ) ;
#145 = DIRECTION ( 'NONE',  ( 1.000000000000000000, 0.0000000000000000000, 0.0000000000000000000 ) ) ;
#146 = FACE_OUTER_BOUND ( 'NONE', #188, .T. ) ;
#147 = ORIENTED_EDGE ( 'NONE', *, *, #38, .F. ) ;
#148 = APPROVAL_ROLE ( '' ) ;
#149 = UNCERTAINTY_MEASURE_WITH_UNIT (LENGTH_MEASURE( 1.000000000000000100E-005 ), #75, 'distance_accuracy_value', 'NONE');
#150 = EDGE_CURVE ( 'NONE', #231, #193, #213, .T. ) ;
#151 = ORIENTED_EDGE ( 'NONE', *, *, #5, .T. ) ;
#152 = EDGE_CURVE ( 'NONE', #108, #134, #83, .T. ) ;
#153 = LOCAL_TIME ( 17, 9, 30.00000000000000000, #169 ) ;
#154 = DIRECTION ( 'NONE',  ( -0.0000000000000000000, -0.0000000000000000000, -1.000000000000000000 ) ) ;
#155 = CARTESIAN_POINT ( 'NONE',  ( 9.992007221626412800E-016, 4.884981308350691100E-015, 1.131724088607730000 ) ) ;
#156 = PLANE ( 'NONE',  #122 ) ;
#157 = CYLINDRICAL_SURFACE ( 'NONE', #70, 25.39999999999999900 ) ;
#158 = CARTESIAN_POINT ( 'NONE',  ( 9.992007221626412800E-016, 4.884981308350691100E-015, 1.131724088607730000 ) ) ;
#159 = CARTESIAN_POINT ( 'NONE',  ( -25.39999999999999900, 7.995584178184967200E-015, 1.131724088607730000 ) ) ;
#160 = DATE_AND_TIME ( #208, #67 ) ;
#161 = CARTESIAN_POINT ( 'NONE',  ( -25.44829746892346700, 25.70397927596624400, 2.299718310563914100 ) ) ;
#162 = PRODUCT_RELATED_PRODUCT_CATEGORY ( 'detail', '', ( #21 ) ) ;
#163 = AXIS2_PLACEMENT_3D ( 'NONE', #155, #154, #27 ) ;
#164 = PERSON_AND_ORGANIZATION_ROLE ( 'creator' ) ;
#165 = CC_DESIGN_SECURITY_CLASSIFICATION ( #91, ( #119 ) ) ;
#166 = APPROVAL_STATUS ( 'not_yet_approved' ) ;
#167 =( NAMED_UNIT ( * ) SI_UNIT ( $, .STERADIAN. ) SOLID_ANGLE_UNIT ( ) );
#168 =( BOUNDED_SURFACE ( )  B_SPLINE_SURFACE ( 3, 3, ( 
 ( #174, #220, #61, #23 ),
 ( #81, #199, #221, #200 ),
 ( #99, #112, #222, #126 ),
 ( #29, #11, #207, #129 ) ),
 .UNSPECIFIED., .F., .F., .T. ) 
 B_SPLINE_SURFACE_WITH_KNOTS ( ( 4, 4 ),
 ( 4, 4 ),
 ( 0.0000000000000000000, 1.000000000000000000 ),
 ( 0.0000000000000000000, 1.000000000000000000 ),
 .UNSPECIFIED. ) 
 GEOMETRIC_REPRESENTATION_ITEM ( )  RATIONAL_B_SPLINE_SURFACE ( (
 ( 1.000000000000000000, 0.9993312843576704900, 0.9993312843576704900, 1.000000000000000000),
 ( 0.9972945146154121900, 0.9966276081734794000, 0.9966276081734794000, 0.9972945146154121900),
 ( 0.9972945146154121900, 0.9966276081734794000, 0.9966276081734794000, 0.9972945146154121900),
 ( 1.000000000000000000, 0.9993312843576704900, 0.9993312843576704900, 1.000000000000000000) ) ) 
 REPRESENTATION_ITEM ( '' )  SURFACE ( )  );
#169 = COORDINATED_UNIVERSAL_TIME_OFFSET ( 2, 0, .AHEAD. ) ;
#170 = ADVANCED_FACE ( 'NONE', ( #223 ), #204, .T. ) ;
#171 = CALENDAR_DATE ( 2018, 13, 12 ) ;
#172 = VERTEX_POINT ( 'NONE', #211 ) ;
#173 = CC_DESIGN_APPROVAL ( #128, ( #119 ) ) ;
#174 = CARTESIAN_POINT ( 'NONE',  ( 5.849884527466956900E-014, -25.70397927596632900, 1.159029938757494300 ) ) ;
#175 = DIRECTION ( 'NONE',  ( 0.0000000000000000000, 0.0000000000000000000, 1.000000000000000000 ) ) ;
#176 = APPROVAL_DATE_TIME ( #160, #128 ) ;
#177 = ORIENTED_EDGE ( 'NONE', *, *, #49, .F. ) ;
#178 = PRODUCT_DEFINITION ( 'UNKNOWN', '', #119, #210 ) ;
#179 = CARTESIAN_POINT ( 'NONE',  ( 25.39999999999999900, 4.884981308350691100E-015, 1.131724088607730000 ) ) ;
#180 = CARTESIAN_POINT ( 'NONE',  ( -8.496965257407227400, 25.70397927596625100, 1.159029938757516000 ) ) ;
#181 = EDGE_CURVE ( 'NONE', #172, #134, #53, .T. ) ;
#182 = DIRECTION ( 'NONE',  ( -0.0000000000000000000, -0.0000000000000000000, -1.000000000000000000 ) ) ;
#183 = CARTESIAN_POINT ( 'NONE',  ( 5.850446106448585900E-014, 25.39999999999962200, 1.131724088607731500 ) ) ;
#184 = APPROVAL_DATE_TIME ( #41, #224 ) ;
#185 = CIRCLE ( 'NONE', #163, 25.39999999999999900 ) ;
#186 = APPROVAL_STATUS ( 'not_yet_approved' ) ;
#187 = CC_DESIGN_PERSON_AND_ORGANIZATION_ASSIGNMENT ( #115, #15, ( #119 ) ) ;
#188 = EDGE_LOOP ( 'NONE', ( #68, #8, #143, #98, #177 ) ) ;
#189 = APPLICATION_CONTEXT ( 'configuration controlled 3d designs of mechanical parts and assemblies' ) ;
#190 = MECHANICAL_CONTEXT ( 'NONE', #189, 'mechanical' ) ;
#191 = ADVANCED_FACE ( 'NONE', ( #107 ), #197, .T. ) ;
#192 = PERSON_AND_ORGANIZATION ( #136, #95 ) ;
#193 = VERTEX_POINT ( 'NONE', #183 ) ;
#194 = AXIS2_PLACEMENT_3D ( 'NONE', #124, #62, #6 ) ;
#195 = ADVANCED_FACE ( 'NONE', ( #146 ), #157, .T. ) ;
#196 = DIRECTION ( 'NONE',  ( 1.000000000000000000, 0.0000000000000000000, 0.0000000000000000000 ) ) ;
#197 = CYLINDRICAL_SURFACE ( 'NONE', #58, 25.39999999999999900 ) ;
#198 = ORIENTED_EDGE ( 'NONE', *, *, #49, .T. ) ;
#199 = CARTESIAN_POINT ( 'NONE',  ( 8.543160741625461800, -8.591236556929118300, -0.3873913946754778400 ) ) ;
#200 = CARTESIAN_POINT ( 'NONE',  ( 25.58665232721607600, -8.591236556929118300, 0.7594985620593530700 ) ) ;
#201 = APPROVAL ( #166, 'UNSPECIFIED' ) ;
#202 = DIRECTION ( 'NONE',  ( -0.0000000000000000000, -0.0000000000000000000, -1.000000000000000000 ) ) ;
#203 =( GEOMETRIC_REPRESENTATION_CONTEXT ( 3 ) GLOBAL_UNCERTAINTY_ASSIGNED_CONTEXT ( ( #149 ) ) GLOBAL_UNIT_ASSIGNED_CONTEXT ( ( #75, #120, #167 ) ) REPRESENTATION_CONTEXT ( 'NONE', 'WORKASPACE' ) );
#204 =( BOUNDED_SURFACE ( )  B_SPLINE_SURFACE ( 3, 3, ( 
 ( #87, #131, #28, #52 ),
 ( #144, #86, #32, #102 ),
 ( #50, #100, #48, #65 ),
 ( #161, #66, #180, #31 ) ),
 .UNSPECIFIED., .F., .F., .F. ) 
 B_SPLINE_SURFACE_WITH_KNOTS ( ( 4, 4 ),
 ( 4, 4 ),
 ( 0.0000000000000000000, 1.000000000000000000 ),
 ( 0.0000000000000000000, 1.000000000000000000 ),
 .UNSPECIFIED. ) 
 GEOMETRIC_REPRESENTATION_ITEM ( )  RATIONAL_B_SPLINE_SURFACE ( (
 ( 1.000000000000000000, 0.9993312843576704900, 0.9993312843576704900, 1.000000000000000000),
 ( 0.9972945146154121900, 0.9966276081734794000, 0.9966276081734794000, 0.9972945146154121900),
 ( 0.9972945146154121900, 0.9966276081734794000, 0.9966276081734794000, 0.9972945146154121900),
 ( 1.000000000000000000, 0.9993312843576704900, 0.9993312843576704900, 1.000000000000000000) ) ) 
 REPRESENTATION_ITEM ( '' )  SURFACE ( )  );
#205 = CARTESIAN_POINT ( 'NONE',  ( 9.992007221626412800E-016, 4.884981308350691100E-015, 6.000000000000000000 ) ) ;
#206 = DIRECTION ( 'NONE',  ( 1.000000000000000000, 0.0000000000000000000, 0.0000000000000000000 ) ) ;
#207 = CARTESIAN_POINT ( 'NONE',  ( 16.98540743444439700, 25.70397927596625100, 1.539513831557069800 ) ) ;
#208 = CALENDAR_DATE ( 2018, 13, 12 ) ;
#209 = CARTESIAN_POINT ( 'NONE',  ( 0.0000000000000000000, 0.0000000000000000000, 0.0000000000000000000 ) ) ;
#210 = DESIGN_CONTEXT ( 'detailed design', #235, 'design' ) ;
#211 = CARTESIAN_POINT ( 'NONE',  ( 25.39999999999999900, 4.884981308350691100E-015, 6.000000000000000000 ) ) ;
#212 = AXIS2_PLACEMENT_3D ( 'NONE', #205, #116, #145 ) ;
#213 = CIRCLE ( 'NONE', #7, 285.5999999999999700 ) ;
#214 = APPROVAL_STATUS ( 'not_yet_approved' ) ;
#215 = APPROVAL_ROLE ( '' ) ;
#216 = VECTOR ( 'NONE', #228, 1000.000000000000000 ) ;
#217 = AXIS2_PLACEMENT_3D ( 'NONE', #9, #59, #196 ) ;
#218 = PERSON_AND_ORGANIZATION ( #136, #95 ) ;
#219 = PRODUCT_DEFINITION_SHAPE ( 'NONE', 'NONE',  #178 ) ;
#220 = CARTESIAN_POINT ( 'NONE',  ( 8.496965257407195400, -25.70397927596633300, 1.159029938757496300 ) ) ;
#221 = CARTESIAN_POINT ( 'NONE',  ( 17.07775206541657900, -8.591236556929118300, -0.004838923609116120600 ) ) ;
#222 = CARTESIAN_POINT ( 'NONE',  ( 17.07775206541657900, 8.591236556929031200, -0.004838923609117855300 ) ) ;
#223 = FACE_OUTER_BOUND ( 'NONE', #56, .T. ) ;
#224 = APPROVAL ( #186, 'UNSPECIFIED' ) ;
#225 = CARTESIAN_POINT ( 'NONE',  ( 9.992007221626412800E-016, 4.884981308350691100E-015, 1.131724088607730000 ) ) ;
#226 = DIRECTION ( 'NONE',  ( 0.0000000000000000000, 0.0000000000000000000, 1.000000000000000000 ) ) ;
#227 = PERSON_AND_ORGANIZATION ( #136, #95 ) ;
#228 = DIRECTION ( 'NONE',  ( 0.0000000000000000000, 0.0000000000000000000, 1.000000000000000000 ) ) ;
#229 = DIRECTION ( 'NONE',  ( 1.000000000000000000, 0.0000000000000000000, 2.056625150099659900E-016 ) ) ;
#230 = APPROVAL_PERSON_ORGANIZATION ( #140, #201, #135 ) ;
#231 = VERTEX_POINT ( 'NONE', #89 ) ;
#232 = CC_DESIGN_PERSON_AND_ORGANIZATION_ASSIGNMENT ( #76, #106, ( #91 ) ) ;
#233 = DATE_TIME_ROLE ( 'creation_date' ) ;
#234 = SECURITY_CLASSIFICATION_LEVEL ( 'unclassified' ) ;
#235 = APPLICATION_CONTEXT ( 'configuration controlled 3d designs of mechanical parts and assemblies' ) ;
ENDSEC;
END-ISO-10303-21;
