ISO-10303-21;
HEADER;
FILE_DESCRIPTION (( 'STEP AP203' ),
    '1' );
FILE_NAME ('110-1527E UVFS pl-cx 50.8 F500.STEP',
    '2018-12-13T15:09:47',
    ( '' ),
    ( '' ),
    'SwSTEP 2.0',
    'SolidWorks 2017',
    '' );
FILE_SCHEMA (( 'CONFIG_CONTROL_DESIGN' ));
ENDSEC;

DATA;
#1 = CARTESIAN_POINT ( 'NONE',  ( 16.96352313317935800, -25.70361650412941400, 1.848338138592674700 ) ) ;
#2 = AXIS2_PLACEMENT_3D ( 'NONE', #190, #146, #46 ) ;
#3 = ORIENTED_EDGE ( 'NONE', *, *, #31, .T. ) ;
#4 = DIRECTION ( 'NONE',  ( 1.000000000000000000, 0.0000000000000000000, 0.0000000000000000000 ) ) ;
#5 = APPROVAL ( #132, 'UNSPECIFIED' ) ;
#6 = APPROVAL_PERSON_ORGANIZATION ( #75, #164, #43 ) ;
#7 = APPROVAL_STATUS ( 'not_yet_approved' ) ;
#8 = DIRECTION ( 'NONE',  ( 0.0000000000000000000, 0.0000000000000000000, 1.000000000000000000 ) ) ;
#9 = APPLICATION_CONTEXT ( 'configuration controlled 3d designs of mechanical parts and assemblies' ) ;
#10 = CARTESIAN_POINT ( 'NONE',  ( -8.554546457574263100, 8.601411542976588700, -0.4658316019193323200 ) ) ;
#11 = MECHANICAL_CONTEXT ( 'NONE', #70, 'mechanical' ) ;
#12 = PRODUCT_DEFINITION_SHAPE ( 'NONE', 'NONE',  #178 ) ;
#13 = AXIS2_PLACEMENT_3D ( 'NONE', #48, #85, #79 ) ;
#14 = ORIENTED_EDGE ( 'NONE', *, *, #110, .F. ) ;
#15 = CALENDAR_DATE ( 2018, 13, 12 ) ;
#16 = CARTESIAN_POINT ( 'NONE',  ( 4.210448008979232600E-014, 25.70361650412943900, 1.392045571987077200 ) ) ;
#17 = CARTESIAN_POINT ( 'NONE',  ( 5.041496734871098900E-014, -8.601411542976578100, -0.4658316019193040100 ) ) ;
#18 = LINE ( 'NONE', #139, #109 ) ;
#19 = CARTESIAN_POINT ( 'NONE',  ( 25.39999999999999900, 4.884981308350691100E-015, 1.359259636046610300 ) ) ;
#20 = CARTESIAN_POINT ( 'NONE',  ( 5.684341886080800200E-014, 4.263256414560599900E-014, 238.0000000000000300 ) ) ;
#21 = CARTESIAN_POINT ( 'NONE',  ( -25.40236271708177500, -25.70361650412942800, 2.759603666805471500 ) ) ;
#22 = DATE_TIME_ROLE ( 'creation_date' ) ;
#23 = CC_DESIGN_APPROVAL ( #201, ( #211 ) ) ;
#24 = VECTOR ( 'NONE', #124, 1000.000000000000000 ) ;
#25 = DIRECTION ( 'NONE',  ( 1.000000000000000000, 0.0000000000000000000, 0.0000000000000000000 ) ) ;
#26 = PERSON_AND_ORGANIZATION_ROLE ( 'design_supplier' ) ;
#27 = SECURITY_CLASSIFICATION ( '', '', #170 ) ;
#28 = DATE_AND_TIME ( #15, #78 ) ;
#29 = CC_DESIGN_APPROVAL ( #5, ( #178 ) ) ;
#30 = EDGE_LOOP ( 'NONE', ( #200, #107, #184, #144, #212 ) ) ;
#31 = EDGE_CURVE ( 'NONE', #54, #45, #156, .T. ) ;
#32 = COORDINATED_UNIVERSAL_TIME_OFFSET ( 2, 0, .AHEAD. ) ;
#33 = CARTESIAN_POINT ( 'NONE',  ( 25.60182545268357800, -8.601411542976572700, 0.9124647412157621500 ) ) ;
#34 = PERSON_AND_ORGANIZATION ( #56, #230 ) ;
#35 = ORIENTED_EDGE ( 'NONE', *, *, #232, .T. ) ;
#36 = DIRECTION ( 'NONE',  ( -0.0000000000000000000, -0.0000000000000000000, -1.000000000000000000 ) ) ;
#37 = CC_DESIGN_APPROVAL ( #164, ( #27 ) ) ;
#38 = CYLINDRICAL_SURFACE ( 'NONE', #61, 25.39999999999999900 ) ;
#39 = AXIS2_PLACEMENT_3D ( 'NONE', #20, #42, #183 ) ;
#40 = DIRECTION ( 'NONE',  ( 1.000000000000000000, 0.0000000000000000000, 0.0000000000000000000 ) ) ;
#41 = ADVANCED_FACE ( 'NONE', ( #97 ), #49, .T. ) ;
#42 = DIRECTION ( 'NONE',  ( 1.000000000000000000, 2.441897141834629800E-016, -3.576540790375509800E-017 ) ) ;
#43 = APPROVAL_ROLE ( '' ) ;
#44 = CIRCLE ( 'NONE', #189, 25.39999999999999900 ) ;
#45 = VERTEX_POINT ( 'NONE', #113 ) ;
#46 = DIRECTION ( 'NONE',  ( 1.000000000000000000, 8.881784197001252300E-016, 0.0000000000000000000 ) ) ;
#47 = CARTESIAN_POINT ( 'NONE',  ( -1.734723475976807100E-014, 8.601411542976592300, -0.4658316019193350400 ) ) ;
#48 = CARTESIAN_POINT ( 'NONE',  ( 0.0000000000000000000, 0.0000000000000000000, 0.0000000000000000000 ) ) ;
#49 =( BOUNDED_SURFACE ( )  B_SPLINE_SURFACE ( 3, 3, ( 
 ( #198, #123, #1, #58 ),
 ( #17, #202, #90, #33 ),
 ( #215, #112, #234, #160 ),
 ( #16, #158, #64, #65 ) ),
 .UNSPECIFIED., .F., .F., .F. ) 
 B_SPLINE_SURFACE_WITH_KNOTS ( ( 4, 4 ),
 ( 4, 4 ),
 ( 0.0000000000000000000, 1.000000000000000000 ),
 ( 0.0000000000000000000, 1.000000000000000000 ),
 .UNSPECIFIED. ) 
 GEOMETRIC_REPRESENTATION_ITEM ( )  RATIONAL_B_SPLINE_SURFACE ( (
 ( 1.000000000000000000, 0.9990359949625086100, 0.9990359949625086100, 1.000000000000000000),
 ( 0.9961007126835095300, 0.9951404665786338600, 0.9951404665786338600, 0.9961007126835095300),
 ( 0.9961007126835095300, 0.9951404665786338600, 0.9951404665786338600, 0.9961007126835095300),
 ( 1.000000000000000000, 0.9990359949625086100, 0.9990359949625086100, 1.000000000000000000) ) ) 
 REPRESENTATION_ITEM ( '' )  SURFACE ( )  );
#50 = CIRCLE ( 'NONE', #39, 238.0000000000000000 ) ;
#51 = CC_DESIGN_SECURITY_CLASSIFICATION ( #27, ( #211 ) ) ;
#52 = UNCERTAINTY_MEASURE_WITH_UNIT (LENGTH_MEASURE( 1.000000000000000100E-005 ), #173, 'distance_accuracy_value', 'NONE');
#53 = AXIS2_PLACEMENT_3D ( 'NONE', #96, #77, #4 ) ;
#54 = VERTEX_POINT ( 'NONE', #19 ) ;
#55 = EDGE_CURVE ( 'NONE', #131, #138, #18, .T. ) ;
#56 = PERSON ( 'UNSPECIFIED', 'UNSPECIFIED', 'UNSPECIFIED', ('UNSPECIFIED'), ('UNSPECIFIED'), ('UNSPECIFIED') ) ;
#57 = ORIENTED_EDGE ( 'NONE', *, *, #157, .T. ) ;
#58 = CARTESIAN_POINT ( 'NONE',  ( 25.40236271708178300, -25.70361650412941400, 2.759603666805472900 ) ) ;
#59 = LOCAL_TIME ( 17, 9, 47.00000000000000000, #165 ) ;
#60 = PLANE ( 'NONE',  #143 ) ;
#61 = AXIS2_PLACEMENT_3D ( 'NONE', #69, #84, #224 ) ;
#62 = DIRECTION ( 'NONE',  ( 0.0000000000000000000, 0.0000000000000000000, 1.000000000000000000 ) ) ;
#63 = ADVANCED_FACE ( 'NONE', ( #193 ), #60, .T. ) ;
#64 = CARTESIAN_POINT ( 'NONE',  ( 16.96352313317935100, 25.70361650412944200, 1.848338138592646700 ) ) ;
#65 = CARTESIAN_POINT ( 'NONE',  ( 25.40236271708177500, 25.70361650412944600, 2.759603666805445300 ) ) ;
#66 = DATE_AND_TIME ( #203, #155 ) ;
#67 = CARTESIAN_POINT ( 'NONE',  ( -8.554546457574254200, -8.601411542976578100, -0.4658316019193092200 ) ) ;
#68 = CARTESIAN_POINT ( 'NONE',  ( 9.992007221626412800E-016, 4.884981308350691100E-015, 1.359259636046610300 ) ) ;
#69 = CARTESIAN_POINT ( 'NONE',  ( 9.992007221626412800E-016, 4.884981308350691100E-015, 1.359259636046610300 ) ) ;
#70 = APPLICATION_CONTEXT ( 'configuration controlled 3d designs of mechanical parts and assemblies' ) ;
#71 = ORIENTED_EDGE ( 'NONE', *, *, #121, .F. ) ;
#72 =( NAMED_UNIT ( * ) PLANE_ANGLE_UNIT ( ) SI_UNIT ( $, .RADIAN. ) );
#73 = APPROVAL_PERSON_ORGANIZATION ( #108, #201, #191 ) ;
#74 = CYLINDRICAL_SURFACE ( 'NONE', #91, 25.39999999999999900 ) ;
#75 = PERSON_AND_ORGANIZATION ( #56, #230 ) ;
#76 = ORIENTED_EDGE ( 'NONE', *, *, #227, .F. ) ;
#77 = DIRECTION ( 'NONE',  ( -0.0000000000000000000, -0.0000000000000000000, -1.000000000000000000 ) ) ;
#78 = LOCAL_TIME ( 17, 9, 47.00000000000000000, #219 ) ;
#79 = DIRECTION ( 'NONE',  ( 1.000000000000000000, 0.0000000000000000000, 0.0000000000000000000 ) ) ;
#80 = CARTESIAN_POINT ( 'NONE',  ( 9.992007221626412800E-016, 4.884981308350691100E-015, 1.359259636046610300 ) ) ;
#81 = CARTESIAN_POINT ( 'NONE',  ( -3.469446951953614200E-015, -25.70361650412942100, 1.392045571987097200 ) ) ;
#82 = DIRECTION ( 'NONE',  ( -0.0000000000000000000, -0.0000000000000000000, -1.000000000000000000 ) ) ;
#83 = ORIENTED_EDGE ( 'NONE', *, *, #110, .T. ) ;
#84 = DIRECTION ( 'NONE',  ( 0.0000000000000000000, 0.0000000000000000000, 1.000000000000000000 ) ) ;
#85 = DIRECTION ( 'NONE',  ( 0.0000000000000000000, 0.0000000000000000000, 1.000000000000000000 ) ) ;
#86 = APPROVAL_PERSON_ORGANIZATION ( #34, #5, #145 ) ;
#87 = LOCAL_TIME ( 17, 9, 47.00000000000000000, #32 ) ;
#88 = CLOSED_SHELL ( 'NONE', ( #41, #114, #220, #218, #63 ) ) ;
#89 = ORIENTED_EDGE ( 'NONE', *, *, #126, .T. ) ;
#90 = CARTESIAN_POINT ( 'NONE',  ( 17.09672297633067800, -8.601411542976572700, -0.005956165303429251600 ) ) ;
#91 = AXIS2_PLACEMENT_3D ( 'NONE', #80, #62, #127 ) ;
#92 = EDGE_LOOP ( 'NONE', ( #187, #89, #57 ) ) ;
#93 = CIRCLE ( 'NONE', #105, 25.39999999999999900 ) ;
#94 = DESIGN_CONTEXT ( 'detailed design', #9, 'design' ) ;
#95 = CARTESIAN_POINT ( 'NONE',  ( 9.992007221626412800E-016, 4.884981308350691100E-015, 1.359259636046610300 ) ) ;
#96 = CARTESIAN_POINT ( 'NONE',  ( 9.992007221626412800E-016, 4.884981308350691100E-015, 6.000000000000000000 ) ) ;
#97 = FACE_OUTER_BOUND ( 'NONE', #92, .T. ) ;
#98 = PERSON_AND_ORGANIZATION_ROLE ( 'creator' ) ;
#99 = DIRECTION ( 'NONE',  ( -0.0000000000000000000, -0.0000000000000000000, -1.000000000000000000 ) ) ;
#100 = DIRECTION ( 'NONE',  ( -0.0000000000000000000, -0.0000000000000000000, -1.000000000000000000 ) ) ;
#101 = CARTESIAN_POINT ( 'NONE',  ( -2.081668171172168500E-014, 25.70361650412943900, 1.392045571987069000 ) ) ;
#102 = PERSON_AND_ORGANIZATION ( #56, #230 ) ;
#103 = VERTEX_POINT ( 'NONE', #141 ) ;
#104 = ADVANCED_BREP_SHAPE_REPRESENTATION ( '110-1527E UVFS pl-cx 50.8 F500', ( #174, #13 ), #214 ) ;
#105 = AXIS2_PLACEMENT_3D ( 'NONE', #171, #99, #117 ) ;
#106 = PERSON_AND_ORGANIZATION ( #56, #230 ) ;
#107 = ORIENTED_EDGE ( 'NONE', *, *, #55, .T. ) ;
#108 = PERSON_AND_ORGANIZATION ( #56, #230 ) ;
#109 = VECTOR ( 'NONE', #8, 1000.000000000000000 ) ;
#110 = EDGE_CURVE ( 'NONE', #45, #138, #197, .T. ) ;
#111 = CALENDAR_DATE ( 2018, 13, 12 ) ;
#112 = CARTESIAN_POINT ( 'NONE',  ( 8.554546457574279100, 8.601411542976592300, -0.4658316019193273200 ) ) ;
#113 = CARTESIAN_POINT ( 'NONE',  ( 25.39999999999999900, 4.884981308350691100E-015, 6.000000000000000000 ) ) ;
#114 = ADVANCED_FACE ( 'NONE', ( #177 ), #74, .T. ) ;
#115 = CALENDAR_DATE ( 2018, 13, 12 ) ;
#116 = DATE_TIME_ROLE ( 'classification_date' ) ;
#117 = DIRECTION ( 'NONE',  ( 1.000000000000000000, 0.0000000000000000000, 0.0000000000000000000 ) ) ;
#118 = APPROVAL_DATE_TIME ( #223, #201 ) ;
#119 = CC_DESIGN_PERSON_AND_ORGANIZATION_ASSIGNMENT ( #142, #133, ( #211 ) ) ;
#120 = VERTEX_POINT ( 'NONE', #129 ) ;
#121 = EDGE_CURVE ( 'NONE', #138, #45, #163, .T. ) ;
#122 = CALENDAR_DATE ( 2018, 13, 12 ) ;
#123 = CARTESIAN_POINT ( 'NONE',  ( 8.487898349164435500, -25.70361650412941800, 1.392045571987104800 ) ) ;
#124 = DIRECTION ( 'NONE',  ( 0.0000000000000000000, 0.0000000000000000000, 1.000000000000000000 ) ) ;
#125 = DATE_AND_TIME ( #122, #179 ) ;
#126 = EDGE_CURVE ( 'NONE', #103, #120, #50, .T. ) ;
#127 = DIRECTION ( 'NONE',  ( 1.000000000000000000, 0.0000000000000000000, 0.0000000000000000000 ) ) ;
#128 = CARTESIAN_POINT ( 'NONE',  ( -1.040834085586084300E-014, -8.601411542976578100, -0.4658316019193117800 ) ) ;
#129 = CARTESIAN_POINT ( 'NONE',  ( 4.217744751478469100E-014, 25.39999999999987400, 1.359259636046594100 ) ) ;
#130 =( BOUNDED_SURFACE ( )  B_SPLINE_SURFACE ( 3, 3, ( 
 ( #21, #169, #188, #81 ),
 ( #210, #148, #67, #128 ),
 ( #149, #185, #10, #47 ),
 ( #154, #168, #150, #101 ) ),
 .UNSPECIFIED., .F., .F., .T. ) 
 B_SPLINE_SURFACE_WITH_KNOTS ( ( 4, 4 ),
 ( 4, 4 ),
 ( 0.0000000000000000000, 1.000000000000000000 ),
 ( 0.0000000000000000000, 1.000000000000000000 ),
 .UNSPECIFIED. ) 
 GEOMETRIC_REPRESENTATION_ITEM ( )  RATIONAL_B_SPLINE_SURFACE ( (
 ( 1.000000000000000000, 0.9990359949625086100, 0.9990359949625086100, 1.000000000000000000),
 ( 0.9961007126835095300, 0.9951404665786338600, 0.9951404665786338600, 0.9961007126835095300),
 ( 0.9961007126835095300, 0.9951404665786338600, 0.9951404665786338600, 0.9961007126835095300),
 ( 1.000000000000000000, 0.9990359949625086100, 0.9990359949625086100, 1.000000000000000000) ) ) 
 REPRESENTATION_ITEM ( '' )  SURFACE ( )  );
#131 = VERTEX_POINT ( 'NONE', #205 ) ;
#132 = APPROVAL_STATUS ( 'not_yet_approved' ) ;
#133 = PERSON_AND_ORGANIZATION_ROLE ( 'creator' ) ;
#134 = FACE_OUTER_BOUND ( 'NONE', #136, .T. ) ;
#135 = EDGE_LOOP ( 'NONE', ( #14, #71 ) ) ;
#136 = EDGE_LOOP ( 'NONE', ( #235, #35, #152 ) ) ;
#137 = SHAPE_DEFINITION_REPRESENTATION ( #12, #104 ) ;
#138 = VERTEX_POINT ( 'NONE', #166 ) ;
#139 = CARTESIAN_POINT ( 'NONE',  ( -25.39999999999999900, 7.995584178184967200E-015, 1.359259636046610300 ) ) ;
#140 = CARTESIAN_POINT ( 'NONE',  ( 9.992007221626412800E-016, 4.884981308350691100E-015, 6.000000000000000000 ) ) ;
#141 = CARTESIAN_POINT ( 'NONE',  ( 5.458228499530454000E-014, -25.39999999999982800, 1.359259636046594100 ) ) ;
#142 = PERSON_AND_ORGANIZATION ( #56, #230 ) ;
#143 = AXIS2_PLACEMENT_3D ( 'NONE', #208, #181, #221 ) ;
#144 = ORIENTED_EDGE ( 'NONE', *, *, #31, .F. ) ;
#145 = APPROVAL_ROLE ( '' ) ;
#146 = DIRECTION ( 'NONE',  ( -0.0000000000000000000, -0.0000000000000000000, -1.000000000000000000 ) ) ;
#147 = PERSON_AND_ORGANIZATION_ROLE ( 'design_owner' ) ;
#148 = CARTESIAN_POINT ( 'NONE',  ( -17.09672297633066400, -8.601411542976581600, -0.005956165303436407300 ) ) ;
#149 = CARTESIAN_POINT ( 'NONE',  ( -25.60182545268358500, 8.601411542976585200, 0.9124647412157372800 ) ) ;
#150 = CARTESIAN_POINT ( 'NONE',  ( -8.487898349164416000, 25.70361650412943200, 1.392045571987071700 ) ) ;
#151 = APPROVAL_DATE_TIME ( #66, #164 ) ;
#152 = ORIENTED_EDGE ( 'NONE', *, *, #206, .T. ) ;
#153 = CC_DESIGN_PERSON_AND_ORGANIZATION_ASSIGNMENT ( #102, #26, ( #211 ) ) ;
#154 = CARTESIAN_POINT ( 'NONE',  ( -25.40236271708179000, 25.70361650412943200, 2.759603666805443600 ) ) ;
#155 = LOCAL_TIME ( 17, 9, 47.00000000000000000, #207 ) ;
#156 = LINE ( 'NONE', #162, #24 ) ;
#157 = EDGE_CURVE ( 'NONE', #120, #54, #233, .T. ) ;
#158 = CARTESIAN_POINT ( 'NONE',  ( 8.487898349164423100, 25.70361650412943900, 1.392045571987077000 ) ) ;
#159 = PRODUCT ( '110-1527E UVFS pl-cx 50.8 F500', '110-1527E UVFS pl-cx 50.8 F500', '', ( #11 ) ) ;
#160 = CARTESIAN_POINT ( 'NONE',  ( 25.60182545268357800, 8.601411542976595800, 0.9124647412157393900 ) ) ;
#161 = CC_DESIGN_PERSON_AND_ORGANIZATION_ASSIGNMENT ( #195, #98, ( #178 ) ) ;
#162 = CARTESIAN_POINT ( 'NONE',  ( 25.39999999999999900, 4.884981308350691100E-015, 1.359259636046610300 ) ) ;
#163 = CIRCLE ( 'NONE', #53, 25.39999999999999900 ) ;
#164 = APPROVAL ( #7, 'UNSPECIFIED' ) ;
#165 = COORDINATED_UNIVERSAL_TIME_OFFSET ( 2, 0, .AHEAD. ) ;
#166 = CARTESIAN_POINT ( 'NONE',  ( -25.39999999999999900, 7.995584178184967200E-015, 6.000000000000000000 ) ) ;
#167 = APPLICATION_PROTOCOL_DEFINITION ( 'international standard', 'config_control_design', 1994, #9 ) ;
#168 = CARTESIAN_POINT ( 'NONE',  ( -16.96352313317935400, 25.70361650412943200, 1.848338138592639400 ) ) ;
#169 = CARTESIAN_POINT ( 'NONE',  ( -16.96352313317933600, -25.70361650412942500, 1.848338138592667600 ) ) ;
#170 = SECURITY_CLASSIFICATION_LEVEL ( 'unclassified' ) ;
#171 = CARTESIAN_POINT ( 'NONE',  ( 9.992007221626412800E-016, 4.884981308350691100E-015, 1.359259636046610300 ) ) ;
#172 = ORIENTED_EDGE ( 'NONE', *, *, #232, .F. ) ;
#173 =( LENGTH_UNIT ( ) NAMED_UNIT ( * ) SI_UNIT ( .MILLI., .METRE. ) );
#174 = MANIFOLD_SOLID_BREP ( 'Imported1', #88 ) ;
#175 = CIRCLE ( 'NONE', #196, 25.39999999999999900 ) ;
#176 = CC_DESIGN_DATE_AND_TIME_ASSIGNMENT ( #194, #22, ( #178 ) ) ;
#177 = FACE_OUTER_BOUND ( 'NONE', #30, .T. ) ;
#178 = PRODUCT_DEFINITION ( 'UNKNOWN', '', #211, #94 ) ;
#179 = LOCAL_TIME ( 17, 9, 47.00000000000000000, #199 ) ;
#180 = AXIS2_PLACEMENT_3D ( 'NONE', #140, #36, #40 ) ;
#181 = DIRECTION ( 'NONE',  ( 0.0000000000000000000, 0.0000000000000000000, 1.000000000000000000 ) ) ;
#182 = APPROVAL_DATE_TIME ( #125, #5 ) ;
#183 = DIRECTION ( 'NONE',  ( 2.441897141834630300E-016, -1.000000000000000000, -4.664802624475447800E-016 ) ) ;
#184 = ORIENTED_EDGE ( 'NONE', *, *, #121, .T. ) ;
#185 = CARTESIAN_POINT ( 'NONE',  ( -17.09672297633067100, 8.601411542976585200, -0.005956165303459934500 ) ) ;
#186 = APPROVAL_STATUS ( 'not_yet_approved' ) ;
#187 = ORIENTED_EDGE ( 'NONE', *, *, #227, .T. ) ;
#188 = CARTESIAN_POINT ( 'NONE',  ( -8.487898349164396400, -25.70361650412942500, 1.392045571987099700 ) ) ;
#189 = AXIS2_PLACEMENT_3D ( 'NONE', #95, #100, #222 ) ;
#190 = CARTESIAN_POINT ( 'NONE',  ( 9.992007221626412800E-016, 4.884981308350691100E-015, 1.359259636046610300 ) ) ;
#191 = APPROVAL_ROLE ( '' ) ;
#192 =( NAMED_UNIT ( * ) SI_UNIT ( $, .STERADIAN. ) SOLID_ANGLE_UNIT ( ) );
#193 = FACE_OUTER_BOUND ( 'NONE', #135, .T. ) ;
#194 = DATE_AND_TIME ( #115, #59 ) ;
#195 = PERSON_AND_ORGANIZATION ( #56, #230 ) ;
#196 = AXIS2_PLACEMENT_3D ( 'NONE', #68, #82, #25 ) ;
#197 = CIRCLE ( 'NONE', #180, 25.39999999999999900 ) ;
#198 = CARTESIAN_POINT ( 'NONE',  ( 5.465759762504174000E-014, -25.70361650412942100, 1.392045571987105000 ) ) ;
#199 = COORDINATED_UNIVERSAL_TIME_OFFSET ( 2, 0, .AHEAD. ) ;
#200 = ORIENTED_EDGE ( 'NONE', *, *, #206, .F. ) ;
#201 = APPROVAL ( #186, 'UNSPECIFIED' ) ;
#202 = CARTESIAN_POINT ( 'NONE',  ( 8.554546457574280900, -8.601411542976574500, -0.4658316019193043400 ) ) ;
#203 = CALENDAR_DATE ( 2018, 13, 12 ) ;
#204 = EDGE_LOOP ( 'NONE', ( #225, #172, #76, #3, #83 ) ) ;
#205 = CARTESIAN_POINT ( 'NONE',  ( -25.39999999999999900, 7.995584178184967200E-015, 1.359259636046610300 ) ) ;
#206 = EDGE_CURVE ( 'NONE', #131, #120, #93, .T. ) ;
#207 = COORDINATED_UNIVERSAL_TIME_OFFSET ( 2, 0, .AHEAD. ) ;
#208 = CARTESIAN_POINT ( 'NONE',  ( 0.0000000000000000000, 52.02000000000000300, 6.000000000000000000 ) ) ;
#209 = PERSON_AND_ORGANIZATION_ROLE ( 'classification_officer' ) ;
#210 = CARTESIAN_POINT ( 'NONE',  ( -25.60182545268357800, -8.601411542976585200, 0.9124647412157607100 ) ) ;
#211 = PRODUCT_DEFINITION_FORMATION_WITH_SPECIFIED_SOURCE ( 'ANY', '', #159, .NOT_KNOWN. ) ;
#212 = ORIENTED_EDGE ( 'NONE', *, *, #157, .F. ) ;
#213 = PERSON_AND_ORGANIZATION ( #56, #230 ) ;
#214 =( GEOMETRIC_REPRESENTATION_CONTEXT ( 3 ) GLOBAL_UNCERTAINTY_ASSIGNED_CONTEXT ( ( #52 ) ) GLOBAL_UNIT_ASSIGNED_CONTEXT ( ( #173, #72, #192 ) ) REPRESENTATION_CONTEXT ( 'NONE', 'WORKASPACE' ) );
#215 = CARTESIAN_POINT ( 'NONE',  ( 4.621421489620340300E-014, 8.601411542976592300, -0.4658316019193269300 ) ) ;
#216 = FACE_OUTER_BOUND ( 'NONE', #204, .T. ) ;
#217 = CC_DESIGN_PERSON_AND_ORGANIZATION_ASSIGNMENT ( #106, #209, ( #27 ) ) ;
#218 = ADVANCED_FACE ( 'NONE', ( #216 ), #38, .T. ) ;
#219 = COORDINATED_UNIVERSAL_TIME_OFFSET ( 2, 0, .AHEAD. ) ;
#220 = ADVANCED_FACE ( 'NONE', ( #134 ), #130, .T. ) ;
#221 = DIRECTION ( 'NONE',  ( 1.000000000000000000, 0.0000000000000000000, -0.0000000000000000000 ) ) ;
#222 = DIRECTION ( 'NONE',  ( 1.000000000000000000, 0.0000000000000000000, 0.0000000000000000000 ) ) ;
#223 = DATE_AND_TIME ( #111, #87 ) ;
#224 = DIRECTION ( 'NONE',  ( 1.000000000000000000, 0.0000000000000000000, 0.0000000000000000000 ) ) ;
#225 = ORIENTED_EDGE ( 'NONE', *, *, #55, .F. ) ;
#226 = APPLICATION_PROTOCOL_DEFINITION ( 'international standard', 'config_control_design', 1994, #70 ) ;
#227 = EDGE_CURVE ( 'NONE', #54, #103, #175, .T. ) ;
#228 = PRODUCT_RELATED_PRODUCT_CATEGORY ( 'detail', '', ( #159 ) ) ;
#229 = CC_DESIGN_PERSON_AND_ORGANIZATION_ASSIGNMENT ( #213, #147, ( #159 ) ) ;
#230 = ORGANIZATION ( 'UNSPECIFIED', 'UNSPECIFIED', '' ) ;
#231 = CC_DESIGN_DATE_AND_TIME_ASSIGNMENT ( #28, #116, ( #27 ) ) ;
#232 = EDGE_CURVE ( 'NONE', #103, #131, #44, .T. ) ;
#233 = CIRCLE ( 'NONE', #2, 25.39999999999999900 ) ;
#234 = CARTESIAN_POINT ( 'NONE',  ( 17.09672297633067800, 8.601411542976594000, -0.005956165303452128300 ) ) ;
#235 = ORIENTED_EDGE ( 'NONE', *, *, #126, .F. ) ;
ENDSEC;
END-ISO-10303-21;
