ISO-10303-21;
HEADER;
FILE_DESCRIPTION (( 'STEP AP203' ),
    '1' );
FILE_NAME ('110-1521E UVFS pl-cx 50.8 F350.STEP',
    '2019-10-01T07:19:12',
    ( '' ),
    ( '' ),
    'SwSTEP 2.0',
    'SolidWorks 2019',
    '' );
FILE_SCHEMA (( 'CONFIG_CONTROL_DESIGN' ));
ENDSEC;

DATA;
#1 = DATE_AND_TIME ( #126, #148 ) ;
#2 = FACE_OUTER_BOUND ( 'NONE', #143, .T. ) ;
#3 = FACE_OUTER_BOUND ( 'NONE', #82, .T. ) ;
#4 = EDGE_LOOP ( 'NONE', ( #80, #117 ) ) ;
#5 = VERTEX_POINT ( 'NONE', #15 ) ;
#6 = PRODUCT_DEFINITION_FORMATION_WITH_SPECIFIED_SOURCE ( 'ANY', '', #175, .NOT_KNOWN. ) ;
#7 = CARTESIAN_POINT ( 'NONE',  ( -4.665904304751420031E-15, -25.39999999999999858, 6.000000000000000000 ) ) ;
#8 = CARTESIAN_POINT ( 'NONE',  ( -25.39999999999999858, 3.110602869834280021E-15, 6.000000000000000000 ) ) ;
#9 = PERSON ( 'UNSPECIFIED', 'UNSPECIFIED', 'UNSPECIFIED', ('UNSPECIFIED'), ('UNSPECIFIED'), ('UNSPECIFIED') ) ;
#10 = APPROVAL_DATE_TIME ( #178, #47 ) ;
#11 = SECURITY_CLASSIFICATION ( '', '', #60 ) ;
#12 = APPROVAL_DATE_TIME ( #1, #68 ) ;
#13 = CARTESIAN_POINT ( 'NONE',  ( 25.39999999999999858, 0.0000000000000000000, 1.947638947994429826 ) ) ;
#14 = APPLICATION_CONTEXT ( 'configuration controlled 3d designs of mechanical parts and assemblies' ) ;
#15 = CARTESIAN_POINT ( 'NONE',  ( 25.39999999999999858, 0.0000000000000000000, 6.000000000000000000 ) ) ;
#16 = ORIENTED_EDGE ( 'NONE', *, *, #158, .T. ) ;
#17 = CARTESIAN_POINT ( 'NONE',  ( 1.555301434917139813E-15, 25.39999999999999858, 1.947638947994429826 ) ) ;
#18 = ORIENTED_EDGE ( 'NONE', *, *, #110, .F. ) ;
#19 = ADVANCED_FACE ( 'NONE', ( #2 ), #67, .T. ) ;
#20 = CARTESIAN_POINT ( 'NONE',  ( 1.555301434917139813E-15, 25.39999999999999858, 6.000000000000000000 ) ) ;
#21 = EDGE_CURVE ( 'NONE', #30, #94, #95, .T. ) ;
#22 = CARTESIAN_POINT ( 'NONE',  ( 25.39999999999997371, -25.39999999999997371, 1.947638947994430048 ) ) ;
#23 = MECHANICAL_CONTEXT ( 'NONE', #14, 'mechanical' ) ;
#24 = APPROVAL ( #41, 'UNSPECIFIED' ) ;
#25 = APPLICATION_PROTOCOL_DEFINITION ( 'international standard', 'config_control_design', 1994, #119 ) ;
#26 = PERSON_AND_ORGANIZATION_ROLE ( 'classification_officer' ) ;
#27 = PERSON_AND_ORGANIZATION ( #9, #45 ) ;
#28 = APPROVAL_PERSON_ORGANIZATION ( #102, #68, #153 ) ;
#29 = DIRECTION ( 'NONE',  ( 1.000000000000000000, -1.398706172756100243E-16, 0.0000000000000000000 ) ) ;
#30 = VERTEX_POINT ( 'NONE', #13 ) ;
#31 = LOCAL_TIME ( 10, 19, 12.00000000000000000, #140 ) ;
#32 = VERTEX_POINT ( 'NONE', #161 ) ;
#33 = FACE_OUTER_BOUND ( 'NONE', #4, .T. ) ;
#34 = CARTESIAN_POINT ( 'NONE',  ( 25.39999999999999858, 0.0000000000000000000, 6.000000000000000000 ) ) ;
#35 = EDGE_CURVE ( 'NONE', #94, #32, #169, .T. ) ;
#36 = DIRECTION ( 'NONE',  ( 1.000000000000000000, -1.398706172756100243E-16, 0.0000000000000000000 ) ) ;
#37 = CARTESIAN_POINT ( 'NONE',  ( 25.39999999999997371, 25.39999999999997371, 6.000000000000002665 ) ) ;
#38 = CC_DESIGN_APPROVAL ( #24, ( #130 ) ) ;
#39 =( NAMED_UNIT ( * ) SI_UNIT ( $, .STERADIAN. ) SOLID_ANGLE_UNIT ( ) );
#40 = UNCERTAINTY_MEASURE_WITH_UNIT (LENGTH_MEASURE( 1.000000000000000082E-05 ), #121, 'distance_accuracy_value', 'NONE');
#41 = APPROVAL_STATUS ( 'not_yet_approved' ) ;
#42 = CC_DESIGN_PERSON_AND_ORGANIZATION_ASSIGNMENT ( #122, #138, ( #130 ) ) ;
#43 = CARTESIAN_POINT ( 'NONE',  ( -25.39999999999999858, 3.110602869834280021E-15, 1.947638947994429826 ) ) ;
#44 = PERSON_AND_ORGANIZATION_ROLE ( 'design_supplier' ) ;
#45 = ORGANIZATION ( 'UNSPECIFIED', 'UNSPECIFIED', '' ) ;
#46 = CARTESIAN_POINT ( 'NONE',  ( 9.992007221626410836E-16, 3.552713678800499352E-15, 1.947638947994429826 ) ) ;
#47 = APPROVAL ( #54, 'UNSPECIFIED' ) ;
#48 = CARTESIAN_POINT ( 'NONE',  ( 25.39999999999997371, 25.39999999999997371, 1.947638947994430048 ) ) ;
#49 = CARTESIAN_POINT ( 'NONE',  ( -25.39999999999971081, 25.39999999999997371, 1.947638947994430048 ) ) ;
#50 = LINE ( 'NONE', #84, #137 ) ;
#51 = CARTESIAN_POINT ( 'NONE',  ( -25.40000000000024016, -25.39999999999996660, 1.947638947994430048 ) ) ;
#52 = AXIS2_PLACEMENT_3D ( 'NONE', #86, #135, #36 ) ;
#53 = APPROVAL_STATUS ( 'not_yet_approved' ) ;
#54 = APPROVAL_STATUS ( 'not_yet_approved' ) ;
#55 =( BOUNDED_CURVE ( )  B_SPLINE_CURVE ( 2, ( #34, #37, #20, #87, #8 ),
 .UNSPECIFIED., .F., .F. ) 
 B_SPLINE_CURVE_WITH_KNOTS ( ( 3, 2, 3 ),
 ( 0.0000000000000000000, 1.570796326794894116, 3.141592653589778905 ),
 .UNSPECIFIED. ) 
 CURVE ( )  GEOMETRIC_REPRESENTATION_ITEM ( )  RATIONAL_B_SPLINE_CURVE ( ( 1.000000000000000000, 0.7071067811865480168, 1.000000000000000000, 0.7071067811865501263, 0.9999999999999978906 ) ) 
 REPRESENTATION_ITEM ( '' )  );
#56 = APPROVAL_ROLE ( '' ) ;
#57 = SHAPE_DEFINITION_REPRESENTATION ( #127, #91 ) ;
#58 = DATE_TIME_ROLE ( 'creation_date' ) ;
#59 = AXIS2_PLACEMENT_3D ( 'NONE', #46, #81, #29 ) ;
#60 = SECURITY_CLASSIFICATION_LEVEL ( 'unclassified' ) ;
#61 = COORDINATED_UNIVERSAL_TIME_OFFSET ( 2, 0, .AHEAD. ) ;
#62 = PERSON_AND_ORGANIZATION ( #9, #45 ) ;
#63 = CYLINDRICAL_SURFACE ( 'NONE', #59, 25.39999999999999858 ) ;
#64 = ADVANCED_FACE ( 'NONE', ( #3 ), #63, .T. ) ;
#65 = FACE_OUTER_BOUND ( 'NONE', #96, .T. ) ;
#66 =( BOUNDED_CURVE ( )  B_SPLINE_CURVE ( 2, ( #147, #99, #7, #70, #120 ),
 .UNSPECIFIED., .F., .T. ) 
 B_SPLINE_CURVE_WITH_KNOTS ( ( 3, 2, 3 ),
 ( 3.141592653589778461, 4.712388980384684345, 6.283185307179590673 ),
 .UNSPECIFIED. ) 
 CURVE ( )  GEOMETRIC_REPRESENTATION_ITEM ( )  RATIONAL_B_SPLINE_CURVE ( ( 1.000000000000002220, 0.7071067811865459074, 1.000000000000000000, 0.7071067811865480168, 1.000000000000000000 ) ) 
 REPRESENTATION_ITEM ( '' )  );
#67 = PLANE ( 'NONE',  #155 ) ;
#68 = APPROVAL ( #53, 'UNSPECIFIED' ) ;
#69 =( GEOMETRIC_REPRESENTATION_CONTEXT ( 3 ) GLOBAL_UNCERTAINTY_ASSIGNED_CONTEXT ( ( #40 ) ) GLOBAL_UNIT_ASSIGNED_CONTEXT ( ( #121, #149, #39 ) ) REPRESENTATION_CONTEXT ( 'NONE', 'WORKASPACE' ) );
#70 = CARTESIAN_POINT ( 'NONE',  ( 25.39999999999997371, -25.39999999999997371, 6.000000000000002665 ) ) ;
#71 = CARTESIAN_POINT ( 'NONE',  ( -25.39999999999999858, 3.110602869834280021E-15, 1.947638947994429826 ) ) ;
#72 = CALENDAR_DATE ( 2019, 1, 10 ) ;
#73 = APPROVAL_DATE_TIME ( #113, #24 ) ;
#74 = CC_DESIGN_APPROVAL ( #47, ( #11 ) ) ;
#75 = ADVANCED_FACE ( 'NONE', ( #33 ), #106, .T. ) ;
#76 = DATE_TIME_ROLE ( 'classification_date' ) ;
#77 = PERSON_AND_ORGANIZATION_ROLE ( 'design_owner' ) ;
#78 = PERSON_AND_ORGANIZATION_ROLE ( 'creator' ) ;
#79 = CARTESIAN_POINT ( 'NONE',  ( 4.263256414560599853E-14, 2.842170943040399481E-14, 166.5999999999999943 ) ) ;
#80 = ORIENTED_EDGE ( 'NONE', *, *, #21, .F. ) ;
#81 = DIRECTION ( 'NONE',  ( 0.0000000000000000000, 0.0000000000000000000, 1.000000000000000000 ) ) ;
#82 = EDGE_LOOP ( 'NONE', ( #146, #16, #97, #18 ) ) ;
#83 = CC_DESIGN_SECURITY_CLASSIFICATION ( #11, ( #6 ) ) ;
#84 = CARTESIAN_POINT ( 'NONE',  ( 25.39999999999999858, 5.392603844284260389E-30, 1.947638947994429826 ) ) ;
#85 = ADVANCED_FACE ( 'NONE', ( #65 ), #156, .T. ) ;
#86 = CARTESIAN_POINT ( 'NONE',  ( 9.992007221626410836E-16, 3.552713678800499352E-15, 1.947638947994429826 ) ) ;
#87 = CARTESIAN_POINT ( 'NONE',  ( -25.39999999999971081, 25.39999999999997371, 6.000000000000003553 ) ) ;
#88 =( BOUNDED_CURVE ( )  B_SPLINE_CURVE ( 2, ( #71, #51, #162, #22, #172 ),
 .UNSPECIFIED., .F., .T. ) 
 B_SPLINE_CURVE_WITH_KNOTS ( ( 3, 2, 3 ),
 ( 3.141592653589778461, 4.712388980384684345, 6.283185307179590673 ),
 .UNSPECIFIED. ) 
 CURVE ( )  GEOMETRIC_REPRESENTATION_ITEM ( )  RATIONAL_B_SPLINE_CURVE ( ( 1.000000000000002220, 0.7071067811865459074, 1.000000000000000000, 0.7071067811865480168, 1.000000000000000000 ) ) 
 REPRESENTATION_ITEM ( '' )  );
#89 = PRODUCT_RELATED_PRODUCT_CATEGORY ( 'detail', '', ( #175 ) ) ;
#90 = PERSON_AND_ORGANIZATION ( #9, #45 ) ;
#91 = ADVANCED_BREP_SHAPE_REPRESENTATION ( '110-1521E UVFS pl-cx 50.8 F350', ( #134, #163 ), #69 ) ;
#92 = DIRECTION ( 'NONE',  ( 0.0000000000000000000, 0.0000000000000000000, 1.000000000000000000 ) ) ;
#93 = DATE_AND_TIME ( #177, #98 ) ;
#94 = VERTEX_POINT ( 'NONE', #174 ) ;
#95 =( BOUNDED_CURVE ( )  B_SPLINE_CURVE ( 2, ( #170, #48, #17, #49, #43 ),
 .UNSPECIFIED., .F., .F. ) 
 B_SPLINE_CURVE_WITH_KNOTS ( ( 3, 2, 3 ),
 ( 0.0000000000000000000, 1.570796326794894116, 3.141592653589778905 ),
 .UNSPECIFIED. ) 
 CURVE ( )  GEOMETRIC_REPRESENTATION_ITEM ( )  RATIONAL_B_SPLINE_CURVE ( ( 1.000000000000000000, 0.7071067811865480168, 1.000000000000000000, 0.7071067811865501263, 0.9999999999999978906 ) ) 
 REPRESENTATION_ITEM ( '' )  );
#96 = EDGE_LOOP ( 'NONE', ( #115, #145, #107, #132 ) ) ;
#97 = ORIENTED_EDGE ( 'NONE', *, *, #179, .T. ) ;
#98 = LOCAL_TIME ( 10, 19, 12.00000000000000000, #61 ) ;
#99 = CARTESIAN_POINT ( 'NONE',  ( -25.40000000000024016, -25.39999999999996660, 6.000000000000001776 ) ) ;
#100 = APPROVAL_PERSON_ORGANIZATION ( #114, #24, #56 ) ;
#101 = CC_DESIGN_PERSON_AND_ORGANIZATION_ASSIGNMENT ( #62, #78, ( #6 ) ) ;
#102 = PERSON_AND_ORGANIZATION ( #9, #45 ) ;
#103 = COORDINATED_UNIVERSAL_TIME_OFFSET ( 2, 0, .AHEAD. ) ;
#104 = AXIS2_PLACEMENT_3D ( 'NONE', #79, #128, #159 ) ;
#105 = PERSON_AND_ORGANIZATION ( #9, #45 ) ;
#106 = SPHERICAL_SURFACE ( 'NONE', #104, 166.5999999999999943 ) ;
#107 = ORIENTED_EDGE ( 'NONE', *, *, #123, .F. ) ;
#108 = ORIENTED_EDGE ( 'NONE', *, *, #123, .T. ) ;
#109 = CC_DESIGN_APPROVAL ( #68, ( #6 ) ) ;
#110 = EDGE_CURVE ( 'NONE', #32, #5, #66, .T. ) ;
#111 = DIRECTION ( 'NONE',  ( 0.0000000000000000000, 0.0000000000000000000, 1.000000000000000000 ) ) ;
#112 = PERSON_AND_ORGANIZATION ( #9, #45 ) ;
#113 = DATE_AND_TIME ( #72, #136 ) ;
#114 = PERSON_AND_ORGANIZATION ( #9, #45 ) ;
#115 = ORIENTED_EDGE ( 'NONE', *, *, #21, .T. ) ;
#116 = DIRECTION ( 'NONE',  ( 0.0000000000000000000, 0.0000000000000000000, 1.000000000000000000 ) ) ;
#117 = ORIENTED_EDGE ( 'NONE', *, *, #158, .F. ) ;
#118 = LOCAL_TIME ( 10, 19, 12.00000000000000000, #165 ) ;
#119 = APPLICATION_CONTEXT ( 'configuration controlled 3d designs of mechanical parts and assemblies' ) ;
#120 = CARTESIAN_POINT ( 'NONE',  ( 25.39999999999999858, 0.0000000000000000000, 6.000000000000000000 ) ) ;
#121 =( LENGTH_UNIT ( ) NAMED_UNIT ( * ) SI_UNIT ( .MILLI., .METRE. ) );
#122 = PERSON_AND_ORGANIZATION ( #9, #45 ) ;
#123 = EDGE_CURVE ( 'NONE', #5, #32, #55, .T. ) ;
#124 = CARTESIAN_POINT ( 'NONE',  ( 0.0000000000000000000, 0.0000000000000000000, 0.0000000000000000000 ) ) ;
#125 = CALENDAR_DATE ( 2019, 1, 10 ) ;
#126 = CALENDAR_DATE ( 2019, 1, 10 ) ;
#127 = PRODUCT_DEFINITION_SHAPE ( 'NONE', 'NONE',  #130 ) ;
#128 = DIRECTION ( 'NONE',  ( 0.0000000000000000000, 9.996005623875960079E-16, -1.000000000000000000 ) ) ;
#129 = DIRECTION ( 'NONE',  ( 0.0000000000000000000, 0.0000000000000000000, 1.000000000000000000 ) ) ;
#130 = PRODUCT_DEFINITION ( 'UNKNOWN', '', #6, #164 ) ;
#131 = DIRECTION ( 'NONE',  ( 1.000000000000000000, 0.0000000000000000000, 0.0000000000000000000 ) ) ;
#132 = ORIENTED_EDGE ( 'NONE', *, *, #179, .F. ) ;
#133 = CLOSED_SHELL ( 'NONE', ( #85, #75, #19, #64 ) ) ;
#134 = MANIFOLD_SOLID_BREP ( '110-1521E.STP', #133 ) ;
#135 = DIRECTION ( 'NONE',  ( 0.0000000000000000000, 0.0000000000000000000, 1.000000000000000000 ) ) ;
#136 = LOCAL_TIME ( 10, 19, 12.00000000000000000, #103 ) ;
#137 = VECTOR ( 'NONE', #111, 1000.000000000000000 ) ;
#138 = PERSON_AND_ORGANIZATION_ROLE ( 'creator' ) ;
#139 = COORDINATED_UNIVERSAL_TIME_OFFSET ( 2, 0, .AHEAD. ) ;
#140 = COORDINATED_UNIVERSAL_TIME_OFFSET ( 2, 0, .AHEAD. ) ;
#141 = APPLICATION_PROTOCOL_DEFINITION ( 'international standard', 'config_control_design', 1994, #14 ) ;
#142 = CARTESIAN_POINT ( 'NONE',  ( 0.0000000000000000000, 52.01999999999999602, 6.000000000000000000 ) ) ;
#143 = EDGE_LOOP ( 'NONE', ( #108, #160 ) ) ;
#144 = CC_DESIGN_PERSON_AND_ORGANIZATION_ASSIGNMENT ( #27, #44, ( #6 ) ) ;
#145 = ORIENTED_EDGE ( 'NONE', *, *, #35, .T. ) ;
#146 = ORIENTED_EDGE ( 'NONE', *, *, #35, .F. ) ;
#147 = CARTESIAN_POINT ( 'NONE',  ( -25.39999999999999858, 3.110602869834280021E-15, 6.000000000000000000 ) ) ;
#148 = LOCAL_TIME ( 10, 19, 12.00000000000000000, #139 ) ;
#149 =( NAMED_UNIT ( * ) PLANE_ANGLE_UNIT ( ) SI_UNIT ( $, .RADIAN. ) );
#150 = CC_DESIGN_PERSON_AND_ORGANIZATION_ASSIGNMENT ( #90, #77, ( #175 ) ) ;
#151 = APPROVAL_PERSON_ORGANIZATION ( #105, #47, #154 ) ;
#152 = DIRECTION ( 'NONE',  ( 1.000000000000000000, 0.0000000000000000000, 0.0000000000000000000 ) ) ;
#153 = APPROVAL_ROLE ( '' ) ;
#154 = APPROVAL_ROLE ( '' ) ;
#155 = AXIS2_PLACEMENT_3D ( 'NONE', #142, #116, #131 ) ;
#156 = CYLINDRICAL_SURFACE ( 'NONE', #52, 25.39999999999999858 ) ;
#157 = CALENDAR_DATE ( 2019, 1, 10 ) ;
#158 = EDGE_CURVE ( 'NONE', #94, #30, #88, .T. ) ;
#159 = DIRECTION ( 'NONE',  ( 0.0000000000000000000, -1.000000000000000000, -9.996005623875960079E-16 ) ) ;
#160 = ORIENTED_EDGE ( 'NONE', *, *, #110, .T. ) ;
#161 = CARTESIAN_POINT ( 'NONE',  ( -25.39999999999999858, 3.110602869834280021E-15, 6.000000000000000000 ) ) ;
#162 = CARTESIAN_POINT ( 'NONE',  ( -4.665904304751420031E-15, -25.39999999999999858, 1.947638947994429826 ) ) ;
#163 = AXIS2_PLACEMENT_3D ( 'NONE', #124, #92, #152 ) ;
#164 = DESIGN_CONTEXT ( 'detailed design', #119, 'design' ) ;
#165 = COORDINATED_UNIVERSAL_TIME_OFFSET ( 2, 0, .AHEAD. ) ;
#166 = CC_DESIGN_DATE_AND_TIME_ASSIGNMENT ( #93, #76, ( #11 ) ) ;
#167 = VECTOR ( 'NONE', #129, 1000.000000000000000 ) ;
#168 = CARTESIAN_POINT ( 'NONE',  ( -25.39999999999999858, 1.021603022743526926E-14, 1.947638947994429826 ) ) ;
#169 = LINE ( 'NONE', #168, #167 ) ;
#170 = CARTESIAN_POINT ( 'NONE',  ( 25.39999999999999858, 0.0000000000000000000, 1.947638947994429826 ) ) ;
#171 = CC_DESIGN_PERSON_AND_ORGANIZATION_ASSIGNMENT ( #112, #26, ( #11 ) ) ;
#172 = CARTESIAN_POINT ( 'NONE',  ( 25.39999999999999858, 0.0000000000000000000, 1.947638947994429826 ) ) ;
#173 = CC_DESIGN_DATE_AND_TIME_ASSIGNMENT ( #176, #58, ( #130 ) ) ;
#174 = CARTESIAN_POINT ( 'NONE',  ( -25.39999999999999858, 3.110602869834280021E-15, 1.947638947994429826 ) ) ;
#175 = PRODUCT ( '110-1521E UVFS pl-cx 50.8 F350', '110-1521E UVFS pl-cx 50.8 F350', '', ( #23 ) ) ;
#176 = DATE_AND_TIME ( #125, #118 ) ;
#177 = CALENDAR_DATE ( 2019, 1, 10 ) ;
#178 = DATE_AND_TIME ( #157, #31 ) ;
#179 = EDGE_CURVE ( 'NONE', #30, #5, #50, .T. ) ;
ENDSEC;
END-ISO-10303-21;
