ISO-10303-21;
HEADER;
FILE_DESCRIPTION (( 'STEP AP203' ),
    '1' );
FILE_NAME ('110-1519E UVFS pl-cx 50.8 F300.STEP',
    '2018-12-13T15:10:09',
    ( '' ),
    ( '' ),
    'SwSTEP 2.0',
    'SolidWorks 2017',
    '' );
FILE_SCHEMA (( 'CONFIG_CONTROL_DESIGN' ));
ENDSEC;

DATA;
#1 = CARTESIAN_POINT ( 'NONE',  ( 8.434573553043604100, -25.70148542164486800, 2.331947948578106700 ) ) ;
#2 = PERSON_AND_ORGANIZATION ( #55, #90 ) ;
#3 = ORIENTED_EDGE ( 'NONE', *, *, #64, .T. ) ;
#4 = APPLICATION_CONTEXT ( 'configuration controlled 3d designs of mechanical parts and assemblies' ) ;
#5 = CARTESIAN_POINT ( 'NONE',  ( 16.83504969049702600, 25.70148542164482200, 3.089596736459288900 ) ) ;
#6 = SECURITY_CLASSIFICATION ( '', '', #222 ) ;
#7 = APPROVAL_STATUS ( 'not_yet_approved' ) ;
#8 = PERSON_AND_ORGANIZATION ( #55, #90 ) ;
#9 = EDGE_CURVE ( 'NONE', #14, #194, #183, .T. ) ;
#10 = APPROVAL_PERSON_ORGANIZATION ( #41, #150, #28 ) ;
#11 = PERSON_AND_ORGANIZATION ( #55, #90 ) ;
#12 = EDGE_LOOP ( 'NONE', ( #110, #177, #82 ) ) ;
#13 = EDGE_CURVE ( 'NONE', #141, #32, #75, .T. ) ;
#14 = VERTEX_POINT ( 'NONE', #35 ) ;
#15 = CARTESIAN_POINT ( 'NONE',  ( 0.0000000000000000000, 52.02000000000000300, 6.000000000000000000 ) ) ;
#16 = PRODUCT_DEFINITION_FORMATION_WITH_SPECIFIED_SOURCE ( 'ANY', '', #199, .NOT_KNOWN. ) ;
#17 = CALENDAR_DATE ( 2018, 13, 12 ) ;
#18 = DIRECTION ( 'NONE',  ( 1.000000000000000000, 0.0000000000000000000, 0.0000000000000000000 ) ) ;
#19 = PERSON_AND_ORGANIZATION ( #55, #90 ) ;
#20 = CARTESIAN_POINT ( 'NONE',  ( -3.469446951953614200E-015, -25.70148542164486800, 2.331947948578096100 ) ) ;
#21 = ORIENTED_EDGE ( 'NONE', *, *, #13, .F. ) ;
#22 = CARTESIAN_POINT ( 'NONE',  ( -16.83504969049701600, 25.70148542164482200, 3.089596736459267100 ) ) ;
#23 = AXIS2_PLACEMENT_3D ( 'NONE', #132, #58, #179 ) ;
#24 =( NAMED_UNIT ( * ) PLANE_ANGLE_UNIT ( ) SI_UNIT ( $, .RADIAN. ) );
#25 = CARTESIAN_POINT ( 'NONE',  ( 25.13350926405656000, -25.70148542164486800, 4.598768604637419900 ) ) ;
#26 = APPLICATION_PROTOCOL_DEFINITION ( 'international standard', 'config_control_design', 1994, #4 ) ;
#27 = COORDINATED_UNIVERSAL_TIME_OFFSET ( 2, 0, .AHEAD. ) ;
#28 = APPROVAL_ROLE ( '' ) ;
#29 = ADVANCED_FACE ( 'NONE', ( #156 ), #174, .T. ) ;
#30 = APPROVAL_STATUS ( 'not_yet_approved' ) ;
#31 = ADVANCED_FACE ( 'NONE', ( #233 ), #228, .T. ) ;
#32 = VERTEX_POINT ( 'NONE', #229 ) ;
#33 = DESIGN_CONTEXT ( 'detailed design', #4, 'design' ) ;
#34 = UNCERTAINTY_MEASURE_WITH_UNIT (LENGTH_MEASURE( 1.000000000000000100E-005 ), #51, 'distance_accuracy_value', 'NONE');
#35 = CARTESIAN_POINT ( 'NONE',  ( -25.39999999999999900, 7.995584178184967200E-015, 2.277119300805679800 ) ) ;
#36 = VERTEX_POINT ( 'NONE', #153 ) ;
#37 = CC_DESIGN_PERSON_AND_ORGANIZATION_ASSIGNMENT ( #128, #172, ( #6 ) ) ;
#38 = DIRECTION ( 'NONE',  ( 0.0000000000000000000, 0.0000000000000000000, 1.000000000000000000 ) ) ;
#39 = DIRECTION ( 'NONE',  ( -0.0000000000000000000, -0.0000000000000000000, -1.000000000000000000 ) ) ;
#40 = DIRECTION ( 'NONE',  ( 0.0000000000000000000, 0.0000000000000000000, 1.000000000000000000 ) ) ;
#41 = PERSON_AND_ORGANIZATION ( #55, #90 ) ;
#42 = CARTESIAN_POINT ( 'NONE',  ( -17.20871933379668700, 8.661457172693728200, -0.01140608280826419700 ) ) ;
#43 = CARTESIAN_POINT ( 'NONE',  ( -6.938893903907228400E-015, -8.661457172693774400, -0.7858715927971098300 ) ) ;
#44 = CARTESIAN_POINT ( 'NONE',  ( 9.992007221626412800E-016, 4.884981308350691100E-015, 2.277119300805679800 ) ) ;
#45 = DIRECTION ( 'NONE',  ( 1.000000000000000000, 0.0000000000000000000, 2.056625150099659900E-016 ) ) ;
#46 = CALENDAR_DATE ( 2018, 13, 12 ) ;
#47 = CARTESIAN_POINT ( 'NONE',  ( 8.621786786677821700, -8.661457172693772600, -0.7858715927970982800 ) ) ;
#48 = CARTESIAN_POINT ( 'NONE',  ( 16.83504969049702600, -25.70148542164486800, 3.089596736459288900 ) ) ;
#49 = AXIS2_PLACEMENT_3D ( 'NONE', #53, #102, #195 ) ;
#50 = DIRECTION ( 'NONE',  ( -0.0000000000000000000, -0.0000000000000000000, -1.000000000000000000 ) ) ;
#51 =( LENGTH_UNIT ( ) NAMED_UNIT ( * ) SI_UNIT ( .MILLI., .METRE. ) );
#52 = CIRCLE ( 'NONE', #23, 25.39999999999999900 ) ;
#53 = CARTESIAN_POINT ( 'NONE',  ( 9.992007221626412800E-016, 4.884981308350691100E-015, 2.277119300805679800 ) ) ;
#54 = CALENDAR_DATE ( 2018, 13, 12 ) ;
#55 = PERSON ( 'UNSPECIFIED', 'UNSPECIFIED', 'UNSPECIFIED', ('UNSPECIFIED'), ('UNSPECIFIED'), ('UNSPECIFIED') ) ;
#56 = FACE_OUTER_BOUND ( 'NONE', #203, .T. ) ;
#57 = ORIENTED_EDGE ( 'NONE', *, *, #59, .F. ) ;
#58 = DIRECTION ( 'NONE',  ( -0.0000000000000000000, -0.0000000000000000000, -1.000000000000000000 ) ) ;
#59 = EDGE_CURVE ( 'NONE', #141, #36, #217, .T. ) ;
#60 = ORIENTED_EDGE ( 'NONE', *, *, #69, .T. ) ;
#61 = APPROVAL ( #81, 'UNSPECIFIED' ) ;
#62 = PRODUCT_DEFINITION ( 'UNKNOWN', '', #16, #33 ) ;
#63 = DIRECTION ( 'NONE',  ( 0.0000000000000000000, 0.0000000000000000000, 1.000000000000000000 ) ) ;
#64 = EDGE_CURVE ( 'NONE', #194, #32, #221, .T. ) ;
#65 = DIRECTION ( 'NONE',  ( 0.0000000000000000000, -1.000000000000000000, 0.0000000000000000000 ) ) ;
#66 = CLOSED_SHELL ( 'NONE', ( #188, #31, #171, #29, #93 ) ) ;
#67 = CARTESIAN_POINT ( 'NONE',  ( 9.992007221626412800E-016, 4.884981308350691100E-015, 2.277119300805679800 ) ) ;
#68 = CARTESIAN_POINT ( 'NONE',  ( 25.39999999999999900, 4.884981308350691100E-015, 2.277119300805679800 ) ) ;
#69 = EDGE_CURVE ( 'NONE', #36, #14, #52, .T. ) ;
#70 = CARTESIAN_POINT ( 'NONE',  ( 9.992007221626412800E-016, 4.884981308350691100E-015, 6.000000000000000000 ) ) ;
#71 = CIRCLE ( 'NONE', #209, 142.7999999999999800 ) ;
#72 = AXIS2_PLACEMENT_3D ( 'NONE', #105, #175, #136 ) ;
#73 = CARTESIAN_POINT ( 'NONE',  ( -6.938893903907228400E-015, 8.661457172693726400, -0.7858715927971102700 ) ) ;
#74 = AXIS2_PLACEMENT_3D ( 'NONE', #85, #40, #18 ) ;
#75 = LINE ( 'NONE', #68, #198 ) ;
#76 = CARTESIAN_POINT ( 'NONE',  ( -25.13350926405655600, -25.70148542164486800, 4.598768604637398600 ) ) ;
#77 = CARTESIAN_POINT ( 'NONE',  ( 0.0000000000000000000, 0.0000000000000000000, 0.0000000000000000000 ) ) ;
#78 = CARTESIAN_POINT ( 'NONE',  ( 25.13350926405656000, 25.70148542164482200, 4.598768604637419900 ) ) ;
#79 = AXIS2_PLACEMENT_3D ( 'NONE', #44, #163, #89 ) ;
#80 = DATE_TIME_ROLE ( 'classification_date' ) ;
#81 = APPROVAL_STATUS ( 'not_yet_approved' ) ;
#82 = ORIENTED_EDGE ( 'NONE', *, *, #225, .T. ) ;
#83 = AXIS2_PLACEMENT_3D ( 'NONE', #67, #50, #144 ) ;
#84 = CIRCLE ( 'NONE', #79, 25.39999999999999900 ) ;
#85 = CARTESIAN_POINT ( 'NONE',  ( 9.992007221626412800E-016, 4.884981308350691100E-015, 2.277119300805679800 ) ) ;
#86 = CALENDAR_DATE ( 2018, 13, 12 ) ;
#87 = CIRCLE ( 'NONE', #88, 25.39999999999999900 ) ;
#88 = AXIS2_PLACEMENT_3D ( 'NONE', #220, #205, #91 ) ;
#89 = DIRECTION ( 'NONE',  ( 1.000000000000000000, 0.0000000000000000000, 0.0000000000000000000 ) ) ;
#90 = ORGANIZATION ( 'UNSPECIFIED', 'UNSPECIFIED', '' ) ;
#91 = DIRECTION ( 'NONE',  ( 1.000000000000000000, 0.0000000000000000000, 0.0000000000000000000 ) ) ;
#92 = CARTESIAN_POINT ( 'NONE',  ( 2.890028906104171000E-014, 25.39999999999991000, 2.277119300805679800 ) ) ;
#93 = ADVANCED_FACE ( 'NONE', ( #56 ), #100, .T. ) ;
#94 = DIRECTION ( 'NONE',  ( 1.000000000000000000, 0.0000000000000000000, 0.0000000000000000000 ) ) ;
#95 = PERSON_AND_ORGANIZATION_ROLE ( 'design_owner' ) ;
#96 = LOCAL_TIME ( 17, 10, 9.000000000000000000, #213 ) ;
#97 = VECTOR ( 'NONE', #212, 1000.000000000000000 ) ;
#98 = SHAPE_DEFINITION_REPRESENTATION ( #191, #157 ) ;
#99 = ORIENTED_EDGE ( 'NONE', *, *, #160, .F. ) ;
#100 = PLANE ( 'NONE',  #182 ) ;
#101 = ORIENTED_EDGE ( 'NONE', *, *, #219, .F. ) ;
#102 = DIRECTION ( 'NONE',  ( 0.0000000000000000000, 0.0000000000000000000, 1.000000000000000000 ) ) ;
#103 = COORDINATED_UNIVERSAL_TIME_OFFSET ( 2, 0, .AHEAD. ) ;
#104 = ORIENTED_EDGE ( 'NONE', *, *, #13, .T. ) ;
#105 = CARTESIAN_POINT ( 'NONE',  ( 9.992007221626412800E-016, 4.884981308350691100E-015, 2.277119300805679800 ) ) ;
#106 = CALENDAR_DATE ( 2018, 13, 12 ) ;
#107 = CARTESIAN_POINT ( 'NONE',  ( -25.69137096415419900, 8.661457172693726400, 1.531263263787073100 ) ) ;
#108 = APPLICATION_PROTOCOL_DEFINITION ( 'international standard', 'config_control_design', 1994, #186 ) ;
#109 = APPROVAL_DATE_TIME ( #123, #114 ) ;
#110 = ORIENTED_EDGE ( 'NONE', *, *, #59, .T. ) ;
#111 = CARTESIAN_POINT ( 'NONE',  ( 8.621786786677821700, 8.661457172693728200, -0.7858715927970990600 ) ) ;
#112 = CARTESIAN_POINT ( 'NONE',  ( 25.69137096415420300, 8.661457172693726400, 1.531263263787094000 ) ) ;
#113 = FACE_OUTER_BOUND ( 'NONE', #12, .T. ) ;
#114 = APPROVAL ( #7, 'UNSPECIFIED' ) ;
#115 = ORIENTED_EDGE ( 'NONE', *, *, #69, .F. ) ;
#116 = CARTESIAN_POINT ( 'NONE',  ( -16.83504969049701600, -25.70148542164486800, 3.089596736459267100 ) ) ;
#117 = CARTESIAN_POINT ( 'NONE',  ( -25.69137096415419900, -8.661457172693774400, 1.531263263787074000 ) ) ;
#118 = EDGE_LOOP ( 'NONE', ( #201, #152, #3, #21, #165 ) ) ;
#119 = DIRECTION ( 'NONE',  ( 1.000000000000000000, 0.0000000000000000000, -0.0000000000000000000 ) ) ;
#120 = CC_DESIGN_SECURITY_CLASSIFICATION ( #6, ( #16 ) ) ;
#121 = CARTESIAN_POINT ( 'NONE',  ( 8.434573553043604100, 25.70148542164482200, 2.331947948578106700 ) ) ;
#122 = PERSON_AND_ORGANIZATION_ROLE ( 'creator' ) ;
#123 = DATE_AND_TIME ( #46, #130 ) ;
#124 = CC_DESIGN_APPROVAL ( #114, ( #62 ) ) ;
#125 = CARTESIAN_POINT ( 'NONE',  ( 2.953023147167269400E-014, 8.661457172693726400, -0.7858715927971009500 ) ) ;
#126 = APPROVAL_ROLE ( '' ) ;
#127 = CARTESIAN_POINT ( 'NONE',  ( 0.0000000000000000000, -2.842170943040400100E-014, 142.8000000000000100 ) ) ;
#128 = PERSON_AND_ORGANIZATION ( #55, #90 ) ;
#129 = MANIFOLD_SOLID_BREP ( 'Imported1', #66 ) ;
#130 = LOCAL_TIME ( 17, 10, 9.000000000000000000, #133 ) ;
#131 = CARTESIAN_POINT ( 'NONE',  ( -25.39999999999999900, 7.995584178184967200E-015, 2.277119300805679800 ) ) ;
#132 = CARTESIAN_POINT ( 'NONE',  ( 9.992007221626412800E-016, 4.884981308350691100E-015, 2.277119300805679800 ) ) ;
#133 = COORDINATED_UNIVERSAL_TIME_OFFSET ( 2, 0, .AHEAD. ) ;
#134 = ORIENTED_EDGE ( 'NONE', *, *, #154, .T. ) ;
#135 = CC_DESIGN_PERSON_AND_ORGANIZATION_ASSIGNMENT ( #19, #122, ( #62 ) ) ;
#136 = DIRECTION ( 'NONE',  ( 1.000000000000000000, 0.0000000000000000000, 0.0000000000000000000 ) ) ;
#137 = CARTESIAN_POINT ( 'NONE',  ( -8.434573553043584600, -25.70148542164486800, 2.331947948578095200 ) ) ;
#138 = APPROVAL_PERSON_ORGANIZATION ( #200, #61, #167 ) ;
#139 = CARTESIAN_POINT ( 'NONE',  ( 2.888901286344623800E-014, -25.70148542164486800, 2.331947948578105800 ) ) ;
#140 = AXIS2_PLACEMENT_3D ( 'NONE', #70, #39, #196 ) ;
#141 = VERTEX_POINT ( 'NONE', #231 ) ;
#142 = ORIENTED_EDGE ( 'NONE', *, *, #64, .F. ) ;
#143 = PERSON_AND_ORGANIZATION_ROLE ( 'creator' ) ;
#144 = DIRECTION ( 'NONE',  ( 1.000000000000000000, -8.881784197001252300E-016, 0.0000000000000000000 ) ) ;
#145 = PERSON_AND_ORGANIZATION_ROLE ( 'design_supplier' ) ;
#146 = APPROVAL_DATE_TIME ( #232, #61 ) ;
#147 = AXIS2_PLACEMENT_3D ( 'NONE', #77, #63, #94 ) ;
#148 = CARTESIAN_POINT ( 'NONE',  ( 2.953023147167269400E-014, -8.661457172693774400, -0.7858715927971002800 ) ) ;
#149 = LOCAL_TIME ( 17, 10, 9.000000000000000000, #151 ) ;
#150 = APPROVAL ( #30, 'UNSPECIFIED' ) ;
#151 = COORDINATED_UNIVERSAL_TIME_OFFSET ( 2, 0, .AHEAD. ) ;
#152 = ORIENTED_EDGE ( 'NONE', *, *, #9, .T. ) ;
#153 = CARTESIAN_POINT ( 'NONE',  ( 2.890028906104171000E-014, -25.39999999999993100, 2.277119300805679800 ) ) ;
#154 = EDGE_CURVE ( 'NONE', #14, #211, #84, .T. ) ;
#155 = PERSON_AND_ORGANIZATION ( #55, #90 ) ;
#156 = FACE_OUTER_BOUND ( 'NONE', #164, .T. ) ;
#157 = ADVANCED_BREP_SHAPE_REPRESENTATION ( '110-1519E UVFS pl-cx 50.8 F300', ( #129, #147 ), #227 ) ;
#158 = DIRECTION ( 'NONE',  ( 0.0000000000000000000, 0.0000000000000000000, 1.000000000000000000 ) ) ;
#159 = CARTESIAN_POINT ( 'NONE',  ( -8.621786786677804000, 8.661457172693728200, -0.7858715927971095000 ) ) ;
#160 = EDGE_CURVE ( 'NONE', #32, #194, #87, .T. ) ;
#161 = CARTESIAN_POINT ( 'NONE',  ( -8.434573553043584600, 25.70148542164482200, 2.331947948578095200 ) ) ;
#162 = CARTESIAN_POINT ( 'NONE',  ( -8.621786786677804000, -8.661457172693772600, -0.7858715927971090500 ) ) ;
#163 = DIRECTION ( 'NONE',  ( -0.0000000000000000000, -0.0000000000000000000, -1.000000000000000000 ) ) ;
#164 = EDGE_LOOP ( 'NONE', ( #210, #115, #57, #104, #218 ) ) ;
#165 = ORIENTED_EDGE ( 'NONE', *, *, #225, .F. ) ;
#166 = CARTESIAN_POINT ( 'NONE',  ( -17.20871933379668700, -8.661457172693772600, -0.01140608280826332900 ) ) ;
#167 = APPROVAL_ROLE ( '' ) ;
#168 = CC_DESIGN_APPROVAL ( #150, ( #16 ) ) ;
#169 = LOCAL_TIME ( 17, 10, 9.000000000000000000, #103 ) ;
#170 = CARTESIAN_POINT ( 'NONE',  ( 2.888901286344623800E-014, 25.70148542164482200, 2.331947948578105800 ) ) ;
#171 = ADVANCED_FACE ( 'NONE', ( #226 ), #207, .T. ) ;
#172 = PERSON_AND_ORGANIZATION_ROLE ( 'classification_officer' ) ;
#173 = DATE_AND_TIME ( #17, #206 ) ;
#174 = CYLINDRICAL_SURFACE ( 'NONE', #49, 25.39999999999999900 ) ;
#175 = DIRECTION ( 'NONE',  ( -0.0000000000000000000, -0.0000000000000000000, -1.000000000000000000 ) ) ;
#176 =( BOUNDED_SURFACE ( )  B_SPLINE_SURFACE ( 3, 3, ( 
 ( #139, #1, #48, #25 ),
 ( #148, #47, #208, #224 ),
 ( #125, #111, #223, #112 ),
 ( #170, #121, #5, #78 ) ),
 .UNSPECIFIED., .F., .F., .F. ) 
 B_SPLINE_SURFACE_WITH_KNOTS ( ( 4, 4 ),
 ( 4, 4 ),
 ( 0.0000000000000000000, 1.000000000000000000 ),
 ( 0.0000000000000000000, 1.000000000000000000 ),
 .UNSPECIFIED. ) 
 GEOMETRIC_REPRESENTATION_ITEM ( )  RATIONAL_B_SPLINE_SURFACE ( (
 ( 1.000000000000000000, 0.9973049484659203300, 0.9973049484659203300, 1.000000000000000000),
 ( 0.9891132215285802800, 0.9864475104235211900, 0.9864475104235211900, 0.9891132215285802800),
 ( 0.9891132215285802800, 0.9864475104235211900, 0.9864475104235211900, 0.9891132215285802800),
 ( 1.000000000000000000, 0.9973049484659203300, 0.9973049484659203300, 1.000000000000000000) ) ) 
 REPRESENTATION_ITEM ( '' )  SURFACE ( )  );
#177 = ORIENTED_EDGE ( 'NONE', *, *, #219, .T. ) ;
#178 = CC_DESIGN_PERSON_AND_ORGANIZATION_ASSIGNMENT ( #8, #143, ( #16 ) ) ;
#179 = DIRECTION ( 'NONE',  ( 1.000000000000000000, 0.0000000000000000000, 0.0000000000000000000 ) ) ;
#180 = CARTESIAN_POINT ( 'NONE',  ( -3.469446951953614200E-015, 25.70148542164482200, 2.331947948578096100 ) ) ;
#181 = DATE_AND_TIME ( #54, #96 ) ;
#182 = AXIS2_PLACEMENT_3D ( 'NONE', #15, #158, #119 ) ;
#183 = LINE ( 'NONE', #131, #97 ) ;
#184 =( NAMED_UNIT ( * ) SI_UNIT ( $, .STERADIAN. ) SOLID_ANGLE_UNIT ( ) );
#185 = CC_DESIGN_DATE_AND_TIME_ASSIGNMENT ( #173, #80, ( #6 ) ) ;
#186 = APPLICATION_CONTEXT ( 'configuration controlled 3d designs of mechanical parts and assemblies' ) ;
#187 = DATE_TIME_ROLE ( 'creation_date' ) ;
#188 = ADVANCED_FACE ( 'NONE', ( #113 ), #176, .T. ) ;
#189 = CIRCLE ( 'NONE', #83, 25.39999999999999900 ) ;
#190 = MECHANICAL_CONTEXT ( 'NONE', #186, 'mechanical' ) ;
#191 = PRODUCT_DEFINITION_SHAPE ( 'NONE', 'NONE',  #62 ) ;
#192 = APPROVAL_PERSON_ORGANIZATION ( #2, #114, #126 ) ;
#193 = CC_DESIGN_APPROVAL ( #61, ( #6 ) ) ;
#194 = VERTEX_POINT ( 'NONE', #235 ) ;
#195 = DIRECTION ( 'NONE',  ( 1.000000000000000000, 0.0000000000000000000, 0.0000000000000000000 ) ) ;
#196 = DIRECTION ( 'NONE',  ( 1.000000000000000000, 0.0000000000000000000, 0.0000000000000000000 ) ) ;
#197 = DATE_AND_TIME ( #86, #149 ) ;
#198 = VECTOR ( 'NONE', #38, 1000.000000000000000 ) ;
#199 = PRODUCT ( '110-1519E UVFS pl-cx 50.8 F300', '110-1519E UVFS pl-cx 50.8 F300', '', ( #190 ) ) ;
#200 = PERSON_AND_ORGANIZATION ( #55, #90 ) ;
#201 = ORIENTED_EDGE ( 'NONE', *, *, #154, .F. ) ;
#202 = CARTESIAN_POINT ( 'NONE',  ( -25.13350926405655600, 25.70148542164482200, 4.598768604637398600 ) ) ;
#203 = EDGE_LOOP ( 'NONE', ( #99, #142 ) ) ;
#204 = CC_DESIGN_PERSON_AND_ORGANIZATION_ASSIGNMENT ( #11, #95, ( #199 ) ) ;
#205 = DIRECTION ( 'NONE',  ( -0.0000000000000000000, -0.0000000000000000000, -1.000000000000000000 ) ) ;
#206 = LOCAL_TIME ( 17, 10, 9.000000000000000000, #27 ) ;
#207 =( BOUNDED_SURFACE ( )  B_SPLINE_SURFACE ( 3, 3, ( 
 ( #76, #116, #137, #20 ),
 ( #117, #166, #162, #43 ),
 ( #107, #42, #159, #73 ),
 ( #202, #22, #161, #180 ) ),
 .UNSPECIFIED., .F., .F., .T. ) 
 B_SPLINE_SURFACE_WITH_KNOTS ( ( 4, 4 ),
 ( 4, 4 ),
 ( 0.0000000000000000000, 1.000000000000000000 ),
 ( 0.0000000000000000000, 1.000000000000000000 ),
 .UNSPECIFIED. ) 
 GEOMETRIC_REPRESENTATION_ITEM ( )  RATIONAL_B_SPLINE_SURFACE ( (
 ( 1.000000000000000000, 0.9973049484659203300, 0.9973049484659203300, 1.000000000000000000),
 ( 0.9891132215285802800, 0.9864475104235211900, 0.9864475104235211900, 0.9891132215285802800),
 ( 0.9891132215285802800, 0.9864475104235211900, 0.9864475104235211900, 0.9891132215285802800),
 ( 1.000000000000000000, 0.9973049484659203300, 0.9973049484659203300, 1.000000000000000000) ) ) 
 REPRESENTATION_ITEM ( '' )  SURFACE ( )  );
#208 = CARTESIAN_POINT ( 'NONE',  ( 17.20871933379669700, -8.661457172693772600, -0.01140608280824164900 ) ) ;
#209 = AXIS2_PLACEMENT_3D ( 'NONE', #127, #45, #65 ) ;
#210 = ORIENTED_EDGE ( 'NONE', *, *, #9, .F. ) ;
#211 = VERTEX_POINT ( 'NONE', #92 ) ;
#212 = DIRECTION ( 'NONE',  ( 0.0000000000000000000, 0.0000000000000000000, 1.000000000000000000 ) ) ;
#213 = COORDINATED_UNIVERSAL_TIME_OFFSET ( 2, 0, .AHEAD. ) ;
#214 = EDGE_LOOP ( 'NONE', ( #101, #60, #134 ) ) ;
#215 = APPROVAL_DATE_TIME ( #181, #150 ) ;
#216 = CC_DESIGN_PERSON_AND_ORGANIZATION_ASSIGNMENT ( #155, #145, ( #16 ) ) ;
#217 = CIRCLE ( 'NONE', #72, 25.39999999999999900 ) ;
#218 = ORIENTED_EDGE ( 'NONE', *, *, #160, .T. ) ;
#219 = EDGE_CURVE ( 'NONE', #36, #211, #71, .T. ) ;
#220 = CARTESIAN_POINT ( 'NONE',  ( 9.992007221626412800E-016, 4.884981308350691100E-015, 6.000000000000000000 ) ) ;
#221 = CIRCLE ( 'NONE', #140, 25.39999999999999900 ) ;
#222 = SECURITY_CLASSIFICATION_LEVEL ( 'unclassified' ) ;
#223 = CARTESIAN_POINT ( 'NONE',  ( 17.20871933379669700, 8.661457172693728200, -0.01140608280824251400 ) ) ;
#224 = CARTESIAN_POINT ( 'NONE',  ( 25.69137096415420300, -8.661457172693774400, 1.531263263787094900 ) ) ;
#225 = EDGE_CURVE ( 'NONE', #211, #141, #189, .T. ) ;
#226 = FACE_OUTER_BOUND ( 'NONE', #214, .T. ) ;
#227 =( GEOMETRIC_REPRESENTATION_CONTEXT ( 3 ) GLOBAL_UNCERTAINTY_ASSIGNED_CONTEXT ( ( #34 ) ) GLOBAL_UNIT_ASSIGNED_CONTEXT ( ( #51, #24, #184 ) ) REPRESENTATION_CONTEXT ( 'NONE', 'WORKASPACE' ) );
#228 = CYLINDRICAL_SURFACE ( 'NONE', #74, 25.39999999999999900 ) ;
#229 = CARTESIAN_POINT ( 'NONE',  ( 25.39999999999999900, 4.884981308350691100E-015, 6.000000000000000000 ) ) ;
#230 = PRODUCT_RELATED_PRODUCT_CATEGORY ( 'detail', '', ( #199 ) ) ;
#231 = CARTESIAN_POINT ( 'NONE',  ( 25.39999999999999900, 4.884981308350691100E-015, 2.277119300805679800 ) ) ;
#232 = DATE_AND_TIME ( #106, #169 ) ;
#233 = FACE_OUTER_BOUND ( 'NONE', #118, .T. ) ;
#234 = CC_DESIGN_DATE_AND_TIME_ASSIGNMENT ( #197, #187, ( #62 ) ) ;
#235 = CARTESIAN_POINT ( 'NONE',  ( -25.39999999999999900, 7.995584178184967200E-015, 6.000000000000000000 ) ) ;
ENDSEC;
END-ISO-10303-21;
