ISO-10303-21;
HEADER;
FILE_DESCRIPTION (( 'STEP AP203' ),
    '1' );
FILE_NAME ('110-1509E UVFS pl-cx 50.8 F100.STEP',
    '2018-12-13T15:10:43',
    ( '' ),
    ( '' ),
    'SwSTEP 2.0',
    'SolidWorks 2017',
    '' );
FILE_SCHEMA (( 'CONFIG_CONTROL_DESIGN' ));
ENDSEC;

DATA;
#1 = CARTESIAN_POINT ( 'NONE',  ( -5.261359906377306900E-015, -25.67134469220900800, 7.513938326890616400 ) ) ;
#2 = CARTESIAN_POINT ( 'NONE',  ( 7.669099805667824100, 25.67134469220902600, 7.513938326890613700 ) ) ;
#3 = AXIS2_PLACEMENT_3D ( 'NONE', #190, #167, #11 ) ;
#4 = ORIENTED_EDGE ( 'NONE', *, *, #74, .F. ) ;
#5 = APPROVAL_DATE_TIME ( #95, #101 ) ;
#6 = CARTESIAN_POINT ( 'NONE',  ( -7.669099805667841900, 25.67134469220902600, 7.513938326890616400 ) ) ;
#7 = CARTESIAN_POINT ( 'NONE',  ( -9.641667130332900000, 9.563320927658393700, -2.799160095127205300 ) ) ;
#8 = MANIFOLD_SOLID_BREP ( 'Imported1', #131 ) ;
#9 = ORIENTED_EDGE ( 'NONE', *, *, #165, .T. ) ;
#10 = CC_DESIGN_APPROVAL ( #101, ( #24 ) ) ;
#11 = DIRECTION ( 'NONE',  ( 1.000000000000000000, 0.0000000000000000000, 0.0000000000000000000 ) ) ;
#12 = CARTESIAN_POINT ( 'NONE',  ( -15.03301933190215000, -25.67134469220900100, 9.655848932037198300 ) ) ;
#13 = CARTESIAN_POINT ( 'NONE',  ( 0.0000000000000000000, 52.02000000000000300, 9.599999999999999600 ) ) ;
#14 = LOCAL_TIME ( 17, 10, 43.00000000000000000, #143 ) ;
#15 = CARTESIAN_POINT ( 'NONE',  ( 9.992007221626412800E-016, 4.884981308350691100E-015, 7.341499903770929900 ) ) ;
#16 = DATE_AND_TIME ( #201, #214 ) ;
#17 = DIRECTION ( 'NONE',  ( 1.000000000000000000, 0.0000000000000000000, 0.0000000000000000000 ) ) ;
#18 = CARTESIAN_POINT ( 'NONE',  ( 0.0000000000000000000, 0.0000000000000000000, 0.0000000000000000000 ) ) ;
#19 = APPLICATION_PROTOCOL_DEFINITION ( 'international standard', 'config_control_design', 1994, #37 ) ;
#20 = COORDINATED_UNIVERSAL_TIME_OFFSET ( 2, 0, .AHEAD. ) ;
#21 = PERSON_AND_ORGANIZATION_ROLE ( 'classification_officer' ) ;
#22 = PRODUCT_DEFINITION_FORMATION_WITH_SPECIFIED_SOURCE ( 'ANY', '', #151, .NOT_KNOWN. ) ;
#23 = CYLINDRICAL_SURFACE ( 'NONE', #3, 25.39999999999999900 ) ;
#24 = SECURITY_CLASSIFICATION ( '', '', #145 ) ;
#25 = CARTESIAN_POINT ( 'NONE',  ( -21.50568639925855800, 25.67134469220902600, 13.76920192739927600 ) ) ;
#26 = PERSON_AND_ORGANIZATION ( #173, #224 ) ;
#27 = CC_DESIGN_SECURITY_CLASSIFICATION ( #24, ( #22 ) ) ;
#28 = CIRCLE ( 'NONE', #29, 25.39999999999999900 ) ;
#29 = AXIS2_PLACEMENT_3D ( 'NONE', #100, #30, #211 ) ;
#30 = DIRECTION ( 'NONE',  ( -0.0000000000000000000, -0.0000000000000000000, -1.000000000000000000 ) ) ;
#31 = DIRECTION ( 'NONE',  ( 1.000000000000000000, 0.0000000000000000000, 0.0000000000000000000 ) ) ;
#32 = DIRECTION ( 'NONE',  ( 0.0000000000000000000, -1.000000000000000000, 0.0000000000000000000 ) ) ;
#33 = CALENDAR_DATE ( 2018, 13, 12 ) ;
#34 = PLANE ( 'NONE',  #220 ) ;
#35 = FACE_OUTER_BOUND ( 'NONE', #45, .T. ) ;
#36 = CARTESIAN_POINT ( 'NONE',  ( 18.89965863463394100, -9.563320927658372400, -0.1063291761071380700 ) ) ;
#37 = APPLICATION_CONTEXT ( 'configuration controlled 3d designs of mechanical parts and assemblies' ) ;
#38 = EDGE_CURVE ( 'NONE', #91, #59, #122, .T. ) ;
#39 = AXIS2_PLACEMENT_3D ( 'NONE', #18, #197, #17 ) ;
#40 = DATE_TIME_ROLE ( 'classification_date' ) ;
#41 = ADVANCED_FACE ( 'NONE', ( #136 ), #23, .T. ) ;
#42 = ORIENTED_EDGE ( 'NONE', *, *, #138, .T. ) ;
#43 = PERSON_AND_ORGANIZATION ( #173, #224 ) ;
#44 = VERTEX_POINT ( 'NONE', #225 ) ;
#45 = EDGE_LOOP ( 'NONE', ( #196, #207, #226 ) ) ;
#46 = CARTESIAN_POINT ( 'NONE',  ( -1.040834085586084300E-014, -25.67134469220899700, 7.513938326890612800 ) ) ;
#47 = ADVANCED_FACE ( 'NONE', ( #35 ), #140, .T. ) ;
#48 = FACE_OUTER_BOUND ( 'NONE', #112, .T. ) ;
#49 = CARTESIAN_POINT ( 'NONE',  ( 9.641667130332869800, -9.563320927658372400, -2.799160095127207500 ) ) ;
#50 = SHAPE_DEFINITION_REPRESENTATION ( #128, #163 ) ;
#51 = PERSON_AND_ORGANIZATION_ROLE ( 'design_owner' ) ;
#52 = ORIENTED_EDGE ( 'NONE', *, *, #161, .T. ) ;
#53 = CARTESIAN_POINT ( 'NONE',  ( 15.03301933190213400, 25.67134469220902600, 9.655848932037189400 ) ) ;
#54 = CARTESIAN_POINT ( 'NONE',  ( -8.442218297342421900E-015, -9.563320927658374200, -2.799160095127204900 ) ) ;
#55 = CARTESIAN_POINT ( 'NONE',  ( 9.992007221626412800E-016, 4.884981308350691100E-015, 7.341499903770929900 ) ) ;
#56 = LOCAL_TIME ( 17, 10, 43.00000000000000000, #99 ) ;
#57 = APPROVAL_STATUS ( 'not_yet_approved' ) ;
#58 = LOCAL_TIME ( 17, 10, 43.00000000000000000, #150 ) ;
#59 = VERTEX_POINT ( 'NONE', #93 ) ;
#60 = CC_DESIGN_APPROVAL ( #148, ( #66 ) ) ;
#61 = PERSON_AND_ORGANIZATION ( #173, #224 ) ;
#62 = CARTESIAN_POINT ( 'NONE',  ( -15.03301933190215000, 25.67134469220902600, 9.655848932037198300 ) ) ;
#63 = FACE_OUTER_BOUND ( 'NONE', #180, .T. ) ;
#64 = CARTESIAN_POINT ( 'NONE',  ( -9.641667130332891100, -9.563320927658365300, -2.799160095127203500 ) ) ;
#65 = PERSON_AND_ORGANIZATION ( #173, #224 ) ;
#66 = PRODUCT_DEFINITION ( 'UNKNOWN', '', #22, #234 ) ;
#67 = DIRECTION ( 'NONE',  ( 0.0000000000000000000, 0.0000000000000000000, 1.000000000000000000 ) ) ;
#68 = CALENDAR_DATE ( 2018, 13, 12 ) ;
#69 = VERTEX_POINT ( 'NONE', #174 ) ;
#70 = DIRECTION ( 'NONE',  ( 1.000000000000000000, 0.0000000000000000000, 0.0000000000000000000 ) ) ;
#71 = CARTESIAN_POINT ( 'NONE',  ( 15.03301933190213400, -25.67134469220900800, 9.655848932037189400 ) ) ;
#72 = APPROVAL_ROLE ( '' ) ;
#73 = CC_DESIGN_DATE_AND_TIME_ASSIGNMENT ( #75, #40, ( #24 ) ) ;
#74 = EDGE_CURVE ( 'NONE', #59, #83, #202, .T. ) ;
#75 = DATE_AND_TIME ( #146, #106 ) ;
#76 = CC_DESIGN_APPROVAL ( #188, ( #22 ) ) ;
#77 = AXIS2_PLACEMENT_3D ( 'NONE', #229, #154, #193 ) ;
#78 = CARTESIAN_POINT ( 'NONE',  ( -25.39999999999999900, 7.995584178184967200E-015, 7.341499903770929900 ) ) ;
#79 = CARTESIAN_POINT ( 'NONE',  ( -18.89965863463396900, 9.563320927658393700, -0.1063291761071276700 ) ) ;
#80 = ORIENTED_EDGE ( 'NONE', *, *, #38, .T. ) ;
#81 = DIRECTION ( 'NONE',  ( 1.000000000000000000, 0.0000000000000000000, -3.084289765114799800E-016 ) ) ;
#82 = DIRECTION ( 'NONE',  ( 1.000000000000000000, 0.0000000000000000000, 0.0000000000000000000 ) ) ;
#83 = VERTEX_POINT ( 'NONE', #206 ) ;
#84 = CARTESIAN_POINT ( 'NONE',  ( 9.641667130332869800, 9.563320927658393700, -2.799160095127207500 ) ) ;
#85 = AXIS2_PLACEMENT_3D ( 'NONE', #232, #115, #82 ) ;
#86 = VERTEX_POINT ( 'NONE', #133 ) ;
#87 = PERSON_AND_ORGANIZATION_ROLE ( 'creator' ) ;
#88 = CC_DESIGN_PERSON_AND_ORGANIZATION_ASSIGNMENT ( #61, #126, ( #22 ) ) ;
#89 = EDGE_LOOP ( 'NONE', ( #183, #4 ) ) ;
#90 = ORIENTED_EDGE ( 'NONE', *, *, #74, .T. ) ;
#91 = VERTEX_POINT ( 'NONE', #152 ) ;
#92 = CARTESIAN_POINT ( 'NONE',  ( -21.50568639925855800, -25.67134469220899700, 13.76920192739927600 ) ) ;
#93 = CARTESIAN_POINT ( 'NONE',  ( -25.39999999999999900, 7.995584178184967200E-015, 9.599999999999999600 ) ) ;
#94 = CC_DESIGN_PERSON_AND_ORGANIZATION_ASSIGNMENT ( #212, #87, ( #66 ) ) ;
#95 = DATE_AND_TIME ( #68, #56 ) ;
#96 = CIRCLE ( 'NONE', #120, 25.39999999999999900 ) ;
#97 = CARTESIAN_POINT ( 'NONE',  ( -27.03715884851778700, -9.563320927658363500, 5.065018358257799700 ) ) ;
#98 = DIRECTION ( 'NONE',  ( 0.0000000000000000000, 0.0000000000000000000, 1.000000000000000000 ) ) ;
#99 = COORDINATED_UNIVERSAL_TIME_OFFSET ( 2, 0, .AHEAD. ) ;
#100 = CARTESIAN_POINT ( 'NONE',  ( 9.992007221626412800E-016, 4.884981308350691100E-015, 7.341499903770929900 ) ) ;
#101 = APPROVAL ( #57, 'UNSPECIFIED' ) ;
#102 = ORIENTED_EDGE ( 'NONE', *, *, #127, .F. ) ;
#103 = DIRECTION ( 'NONE',  ( -0.0000000000000000000, -0.0000000000000000000, -1.000000000000000000 ) ) ;
#104 = APPROVAL_STATUS ( 'not_yet_approved' ) ;
#105 =( NAMED_UNIT ( * ) SI_UNIT ( $, .STERADIAN. ) SOLID_ANGLE_UNIT ( ) );
#106 = LOCAL_TIME ( 17, 10, 43.00000000000000000, #20 ) ;
#107 = CARTESIAN_POINT ( 'NONE',  ( 18.89965863463394100, 9.563320927658393700, -0.1063291761071380700 ) ) ;
#108 = PERSON_AND_ORGANIZATION_ROLE ( 'design_supplier' ) ;
#109 = VECTOR ( 'NONE', #147, 1000.000000000000000 ) ;
#110 = APPROVAL_PERSON_ORGANIZATION ( #26, #101, #184 ) ;
#111 = CARTESIAN_POINT ( 'NONE',  ( -27.03715884851779100, 9.563320927658391900, 5.065018358257796100 ) ) ;
#112 = EDGE_LOOP ( 'NONE', ( #125, #52, #42 ) ) ;
#113 = CC_DESIGN_PERSON_AND_ORGANIZATION_ASSIGNMENT ( #116, #21, ( #24 ) ) ;
#114 = EDGE_CURVE ( 'NONE', #83, #59, #170, .T. ) ;
#115 = DIRECTION ( 'NONE',  ( -0.0000000000000000000, -0.0000000000000000000, -1.000000000000000000 ) ) ;
#116 = PERSON_AND_ORGANIZATION ( #173, #224 ) ;
#117 = CYLINDRICAL_SURFACE ( 'NONE', #198, 25.39999999999999900 ) ;
#118 = DIRECTION ( 'NONE',  ( 1.000000000000000000, 0.0000000000000000000, 0.0000000000000000000 ) ) ;
#119 = CARTESIAN_POINT ( 'NONE',  ( 27.03715884851777000, 9.563320927658391900, 5.065018358257777500 ) ) ;
#120 = AXIS2_PLACEMENT_3D ( 'NONE', #192, #178, #135 ) ;
#121 = CARTESIAN_POINT ( 'NONE',  ( 27.03715884851777000, -9.563320927658374200, 5.065018358257777500 ) ) ;
#122 = LINE ( 'NONE', #78, #109 ) ;
#123 = CARTESIAN_POINT ( 'NONE',  ( -8.442218297342421900E-015, 9.563320927658391900, -2.799160095127204900 ) ) ;
#124 = APPROVAL_PERSON_ORGANIZATION ( #175, #148, #72 ) ;
#125 = ORIENTED_EDGE ( 'NONE', *, *, #127, .T. ) ;
#126 = PERSON_AND_ORGANIZATION_ROLE ( 'creator' ) ;
#127 = EDGE_CURVE ( 'NONE', #69, #44, #164, .T. ) ;
#128 = PRODUCT_DEFINITION_SHAPE ( 'NONE', 'NONE',  #66 ) ;
#129 = ORIENTED_EDGE ( 'NONE', *, *, #114, .T. ) ;
#130 = ADVANCED_FACE ( 'NONE', ( #156 ), #34, .T. ) ;
#131 = CLOSED_SHELL ( 'NONE', ( #203, #172, #47, #41, #130 ) ) ;
#132 = CARTESIAN_POINT ( 'NONE',  ( -1.040834085586084300E-014, 25.67134469220902600, 7.513938326890612800 ) ) ;
#133 = CARTESIAN_POINT ( 'NONE',  ( -5.314544912731365900E-015, 25.39999999999999100, 7.341499903770929000 ) ) ;
#134 =( GEOMETRIC_REPRESENTATION_CONTEXT ( 3 ) GLOBAL_UNCERTAINTY_ASSIGNED_CONTEXT ( ( #157 ) ) GLOBAL_UNIT_ASSIGNED_CONTEXT ( ( #181, #219, #105 ) ) REPRESENTATION_CONTEXT ( 'NONE', 'WORKASPACE' ) );
#135 = DIRECTION ( 'NONE',  ( 1.000000000000000000, 0.0000000000000000000, 0.0000000000000000000 ) ) ;
#136 = FACE_OUTER_BOUND ( 'NONE', #144, .T. ) ;
#137 = CC_DESIGN_PERSON_AND_ORGANIZATION_ASSIGNMENT ( #43, #51, ( #151 ) ) ;
#138 = EDGE_CURVE ( 'NONE', #86, #69, #28, .T. ) ;
#139 = MECHANICAL_CONTEXT ( 'NONE', #141, 'mechanical' ) ;
#140 =( BOUNDED_SURFACE ( )  B_SPLINE_SURFACE ( 3, 3, ( 
 ( #92, #12, #208, #46 ),
 ( #97, #168, #64, #227 ),
 ( #111, #79, #7, #209 ),
 ( #25, #62, #6, #132 ) ),
 .UNSPECIFIED., .F., .F., .F. ) 
 B_SPLINE_SURFACE_WITH_KNOTS ( ( 4, 4 ),
 ( 4, 4 ),
 ( 0.0000000000000000000, 1.000000000000000000 ),
 ( 0.0000000000000000000, 1.000000000000000000 ),
 .UNSPECIFIED. ) 
 GEOMETRIC_REPRESENTATION_ITEM ( )  RATIONAL_B_SPLINE_SURFACE ( (
 ( 1.000000000000000000, 0.9734710037973447500, 0.9734710037973447500, 1.000000000000000000),
 ( 0.8947848725493159300, 0.8710471280632617900, 0.8710471280632617900, 0.8947848725493159300),
 ( 0.8947848725493159300, 0.8710471280632617900, 0.8710471280632617900, 0.8947848725493159300),
 ( 1.000000000000000000, 0.9734710037973447500, 0.9734710037973447500, 1.000000000000000000) ) ) 
 REPRESENTATION_ITEM ( '' )  SURFACE ( )  );
#141 = APPLICATION_CONTEXT ( 'configuration controlled 3d designs of mechanical parts and assemblies' ) ;
#142 = CARTESIAN_POINT ( 'NONE',  ( 7.669099805667824100, -25.67134469220900800, 7.513938326890613700 ) ) ;
#143 = COORDINATED_UNIVERSAL_TIME_OFFSET ( 2, 0, .AHEAD. ) ;
#144 = EDGE_LOOP ( 'NONE', ( #177, #223, #102, #9, #129 ) ) ;
#145 = SECURITY_CLASSIFICATION_LEVEL ( 'unclassified' ) ;
#146 = CALENDAR_DATE ( 2018, 13, 12 ) ;
#147 = DIRECTION ( 'NONE',  ( 0.0000000000000000000, 0.0000000000000000000, 1.000000000000000000 ) ) ;
#148 = APPROVAL ( #104, 'UNSPECIFIED' ) ;
#149 = EDGE_CURVE ( 'NONE', #91, #86, #96, .T. ) ;
#150 = COORDINATED_UNIVERSAL_TIME_OFFSET ( 2, 0, .AHEAD. ) ;
#151 = PRODUCT ( '110-1509E UVFS pl-cx 50.8 F100', '110-1509E UVFS pl-cx 50.8 F100', '', ( #139 ) ) ;
#152 = CARTESIAN_POINT ( 'NONE',  ( -25.39999999999999900, 7.995584178184967200E-015, 7.341499903770929900 ) ) ;
#153 = APPROVAL_DATE_TIME ( #16, #148 ) ;
#154 = DIRECTION ( 'NONE',  ( -0.0000000000000000000, -0.0000000000000000000, -1.000000000000000000 ) ) ;
#155 = CARTESIAN_POINT ( 'NONE',  ( 25.39999999999999900, 4.884981308350691100E-015, 7.341499903770929900 ) ) ;
#156 = FACE_OUTER_BOUND ( 'NONE', #89, .T. ) ;
#157 = UNCERTAINTY_MEASURE_WITH_UNIT (LENGTH_MEASURE( 1.000000000000000100E-005 ), #181, 'distance_accuracy_value', 'NONE');
#158 = CARTESIAN_POINT ( 'NONE',  ( 21.50568639925854300, -25.67134469220900800, 13.76920192739926400 ) ) ;
#159 = CALENDAR_DATE ( 2018, 13, 12 ) ;
#160 = AXIS2_PLACEMENT_3D ( 'NONE', #55, #103, #70 ) ;
#161 = EDGE_CURVE ( 'NONE', #44, #86, #217, .T. ) ;
#162 = APPROVAL_ROLE ( '' ) ;
#163 = ADVANCED_BREP_SHAPE_REPRESENTATION ( '110-1509E UVFS pl-cx 50.8 F100', ( #8, #39 ), #134 ) ;
#164 = CIRCLE ( 'NONE', #85, 25.39999999999999900 ) ;
#165 = EDGE_CURVE ( 'NONE', #69, #83, #187, .T. ) ;
#166 = APPROVAL_DATE_TIME ( #199, #188 ) ;
#167 = DIRECTION ( 'NONE',  ( 0.0000000000000000000, 0.0000000000000000000, 1.000000000000000000 ) ) ;
#168 = CARTESIAN_POINT ( 'NONE',  ( -18.89965863463396900, -9.563320927658365300, -0.1063291761071233100 ) ) ;
#169 = EDGE_CURVE ( 'NONE', #44, #91, #222, .T. ) ;
#170 = CIRCLE ( 'NONE', #77, 25.39999999999999900 ) ;
#171 = CARTESIAN_POINT ( 'NONE',  ( 7.105427357601000300E-015, 1.065814103640150000E-014, 47.60999999999999900 ) ) ;
#172 = ADVANCED_FACE ( 'NONE', ( #63 ), #117, .T. ) ;
#173 = PERSON ( 'UNSPECIFIED', 'UNSPECIFIED', 'UNSPECIFIED', ('UNSPECIFIED'), ('UNSPECIFIED'), ('UNSPECIFIED') ) ;
#174 = CARTESIAN_POINT ( 'NONE',  ( 25.39999999999999900, 4.884981308350691100E-015, 7.341499903770929900 ) ) ;
#175 = PERSON_AND_ORGANIZATION ( #173, #224 ) ;
#176 = CC_DESIGN_DATE_AND_TIME_ASSIGNMENT ( #195, #218, ( #66 ) ) ;
#177 = ORIENTED_EDGE ( 'NONE', *, *, #38, .F. ) ;
#178 = DIRECTION ( 'NONE',  ( -0.0000000000000000000, -0.0000000000000000000, -1.000000000000000000 ) ) ;
#179 = CARTESIAN_POINT ( 'NONE',  ( -5.261359906377306900E-015, 25.67134469220902600, 7.513938326890616400 ) ) ;
#180 = EDGE_LOOP ( 'NONE', ( #185, #80, #90, #191, #228 ) ) ;
#181 =( LENGTH_UNIT ( ) NAMED_UNIT ( * ) SI_UNIT ( .MILLI., .METRE. ) );
#182 = CC_DESIGN_PERSON_AND_ORGANIZATION_ASSIGNMENT ( #65, #108, ( #22 ) ) ;
#183 = ORIENTED_EDGE ( 'NONE', *, *, #114, .F. ) ;
#184 = APPROVAL_ROLE ( '' ) ;
#185 = ORIENTED_EDGE ( 'NONE', *, *, #149, .F. ) ;
#186 = PERSON_AND_ORGANIZATION ( #173, #224 ) ;
#187 = LINE ( 'NONE', #155, #231 ) ;
#188 = APPROVAL ( #204, 'UNSPECIFIED' ) ;
#189 = AXIS2_PLACEMENT_3D ( 'NONE', #194, #233, #118 ) ;
#190 = CARTESIAN_POINT ( 'NONE',  ( 9.992007221626412800E-016, 4.884981308350691100E-015, 7.341499903770929900 ) ) ;
#191 = ORIENTED_EDGE ( 'NONE', *, *, #165, .F. ) ;
#192 = CARTESIAN_POINT ( 'NONE',  ( 9.992007221626412800E-016, 4.884981308350691100E-015, 7.341499903770929900 ) ) ;
#193 = DIRECTION ( 'NONE',  ( 1.000000000000000000, 0.0000000000000000000, 0.0000000000000000000 ) ) ;
#194 = CARTESIAN_POINT ( 'NONE',  ( 9.992007221626412800E-016, 4.884981308350691100E-015, 9.599999999999999600 ) ) ;
#195 = DATE_AND_TIME ( #33, #58 ) ;
#196 = ORIENTED_EDGE ( 'NONE', *, *, #161, .F. ) ;
#197 = DIRECTION ( 'NONE',  ( 0.0000000000000000000, 0.0000000000000000000, 1.000000000000000000 ) ) ;
#198 = AXIS2_PLACEMENT_3D ( 'NONE', #15, #67, #31 ) ;
#199 = DATE_AND_TIME ( #159, #14 ) ;
#200 = PRODUCT_RELATED_PRODUCT_CATEGORY ( 'detail', '', ( #151 ) ) ;
#201 = CALENDAR_DATE ( 2018, 13, 12 ) ;
#202 = CIRCLE ( 'NONE', #189, 25.39999999999999900 ) ;
#203 = ADVANCED_FACE ( 'NONE', ( #48 ), #230, .T. ) ;
#204 = APPROVAL_STATUS ( 'not_yet_approved' ) ;
#205 = COORDINATED_UNIVERSAL_TIME_OFFSET ( 2, 0, .AHEAD. ) ;
#206 = CARTESIAN_POINT ( 'NONE',  ( 25.39999999999999900, 4.884981308350691100E-015, 9.599999999999999600 ) ) ;
#207 = ORIENTED_EDGE ( 'NONE', *, *, #169, .T. ) ;
#208 = CARTESIAN_POINT ( 'NONE',  ( -7.669099805667841900, -25.67134469220900100, 7.513938326890616400 ) ) ;
#209 = CARTESIAN_POINT ( 'NONE',  ( -2.081668171172168500E-014, 9.563320927658391900, -2.799160095127210200 ) ) ;
#210 = AXIS2_PLACEMENT_3D ( 'NONE', #171, #81, #32 ) ;
#211 = DIRECTION ( 'NONE',  ( 1.000000000000000000, 8.881784197001252300E-016, 0.0000000000000000000 ) ) ;
#212 = PERSON_AND_ORGANIZATION ( #173, #224 ) ;
#213 = DIRECTION ( 'NONE',  ( 1.000000000000000000, 0.0000000000000000000, -0.0000000000000000000 ) ) ;
#214 = LOCAL_TIME ( 17, 10, 43.00000000000000000, #205 ) ;
#215 = DIRECTION ( 'NONE',  ( 0.0000000000000000000, 0.0000000000000000000, 1.000000000000000000 ) ) ;
#216 = CARTESIAN_POINT ( 'NONE',  ( 21.50568639925854300, 25.67134469220902600, 13.76920192739926400 ) ) ;
#217 = CIRCLE ( 'NONE', #210, 47.60999999999999200 ) ;
#218 = DATE_TIME_ROLE ( 'creation_date' ) ;
#219 =( NAMED_UNIT ( * ) PLANE_ANGLE_UNIT ( ) SI_UNIT ( $, .RADIAN. ) );
#220 = AXIS2_PLACEMENT_3D ( 'NONE', #13, #215, #213 ) ;
#221 = APPROVAL_PERSON_ORGANIZATION ( #186, #188, #162 ) ;
#222 = CIRCLE ( 'NONE', #160, 25.39999999999999900 ) ;
#223 = ORIENTED_EDGE ( 'NONE', *, *, #169, .F. ) ;
#224 = ORGANIZATION ( 'UNSPECIFIED', 'UNSPECIFIED', '' ) ;
#225 = CARTESIAN_POINT ( 'NONE',  ( -5.314544912731365900E-015, -25.39999999999997700, 7.341499903770929000 ) ) ;
#226 = ORIENTED_EDGE ( 'NONE', *, *, #149, .T. ) ;
#227 = CARTESIAN_POINT ( 'NONE',  ( -1.387778780781445500E-014, -9.563320927658363500, -2.799160095127207100 ) ) ;
#228 = ORIENTED_EDGE ( 'NONE', *, *, #138, .F. ) ;
#229 = CARTESIAN_POINT ( 'NONE',  ( 9.992007221626412800E-016, 4.884981308350691100E-015, 9.599999999999999600 ) ) ;
#230 =( BOUNDED_SURFACE ( )  B_SPLINE_SURFACE ( 3, 3, ( 
 ( #1, #142, #71, #158 ),
 ( #54, #49, #36, #121 ),
 ( #123, #84, #107, #119 ),
 ( #179, #2, #53, #216 ) ),
 .UNSPECIFIED., .F., .F., .F. ) 
 B_SPLINE_SURFACE_WITH_KNOTS ( ( 4, 4 ),
 ( 4, 4 ),
 ( 0.0000000000000000000, 1.000000000000000000 ),
 ( 0.0000000000000000000, 1.000000000000000000 ),
 .UNSPECIFIED. ) 
 GEOMETRIC_REPRESENTATION_ITEM ( )  RATIONAL_B_SPLINE_SURFACE ( (
 ( 1.000000000000000000, 0.9734710037973447500, 0.9734710037973447500, 1.000000000000000000),
 ( 0.8947848725493159300, 0.8710471280632617900, 0.8710471280632617900, 0.8947848725493159300),
 ( 0.8947848725493159300, 0.8710471280632617900, 0.8710471280632617900, 0.8947848725493159300),
 ( 1.000000000000000000, 0.9734710037973447500, 0.9734710037973447500, 1.000000000000000000) ) ) 
 REPRESENTATION_ITEM ( '' )  SURFACE ( )  );
#231 = VECTOR ( 'NONE', #98, 1000.000000000000000 ) ;
#232 = CARTESIAN_POINT ( 'NONE',  ( 9.992007221626412800E-016, 4.884981308350691100E-015, 7.341499903770929900 ) ) ;
#233 = DIRECTION ( 'NONE',  ( -0.0000000000000000000, -0.0000000000000000000, -1.000000000000000000 ) ) ;
#234 = DESIGN_CONTEXT ( 'detailed design', #37, 'design' ) ;
#235 = APPLICATION_PROTOCOL_DEFINITION ( 'international standard', 'config_control_design', 1994, #141 ) ;
ENDSEC;
END-ISO-10303-21;
