ISO-10303-21;
HEADER;
FILE_DESCRIPTION (( 'STEP AP203' ),
    '1' );
FILE_NAME ('110-1505E UVFS pl-cx 50.8 F75.STEP',
    '2018-12-13T15:10:52',
    ( '' ),
    ( '' ),
    'SwSTEP 2.0',
    'SolidWorks 2017',
    '' );
FILE_SCHEMA (( 'CONFIG_CONTROL_DESIGN' ));
ENDSEC;

DATA;
#1 = ORIENTED_EDGE ( 'NONE', *, *, #155, .F. ) ;
#2 = CC_DESIGN_DATE_AND_TIME_ASSIGNMENT ( #16, #36, ( #84 ) ) ;
#3 = APPLICATION_PROTOCOL_DEFINITION ( 'international standard', 'config_control_design', 1994, #202 ) ;
#4 = APPROVAL_ROLE ( '' ) ;
#5 = CARTESIAN_POINT ( 'NONE',  ( -1.387436011707667000E-014, -25.40000000000001300, 10.60932072632300000 ) ) ;
#6 = ORIENTED_EDGE ( 'NONE', *, *, #128, .T. ) ;
#7 = AXIS2_PLACEMENT_3D ( 'NONE', #213, #156, #226 ) ;
#8 = CARTESIAN_POINT ( 'NONE',  ( -3.816391647148975000E-014, -10.71684228273406900, -4.536195168475129200 ) ) ;
#9 = DIRECTION ( 'NONE',  ( 1.000000000000000000, 8.881784197001252300E-016, 0.0000000000000000000 ) ) ;
#10 = COORDINATED_UNIVERSAL_TIME_OFFSET ( 2, 0, .AHEAD. ) ;
#11 = DIRECTION ( 'NONE',  ( 0.0000000000000000000, 0.0000000000000000000, 1.000000000000000000 ) ) ;
#12 = CARTESIAN_POINT ( 'NONE',  ( 17.76414550343436700, 25.63720482785396700, 18.32112530531448200 ) ) ;
#13 = DIRECTION ( 'NONE',  ( 0.0000000000000000000, 0.0000000000000000000, 1.000000000000000000 ) ) ;
#14 = ORIENTED_EDGE ( 'NONE', *, *, #94, .F. ) ;
#15 = CC_DESIGN_DATE_AND_TIME_ASSIGNMENT ( #111, #95, ( #163 ) ) ;
#16 = DATE_AND_TIME ( #18, #103 ) ;
#17 = DIRECTION ( 'NONE',  ( 1.000000000000000000, 0.0000000000000000000, -0.0000000000000000000 ) ) ;
#18 = CALENDAR_DATE ( 2018, 13, 12 ) ;
#19 = ORIENTED_EDGE ( 'NONE', *, *, #75, .F. ) ;
#20 = CC_DESIGN_APPROVAL ( #24, ( #184 ) ) ;
#21 = CARTESIAN_POINT ( 'NONE',  ( -17.76414550343438500, -25.63720482785394900, 18.32112530531450300 ) ) ;
#22 = CYLINDRICAL_SURFACE ( 'NONE', #142, 25.39999999999999900 ) ;
#23 = CARTESIAN_POINT ( 'NONE',  ( -25.39999999999999900, 7.995584178184967200E-015, 10.60932072632300000 ) ) ;
#24 = APPROVAL ( #96, 'UNSPECIFIED' ) ;
#25 = CARTESIAN_POINT ( 'NONE',  ( -1.387436011707667000E-014, 25.40000000000002700, 10.60932072632300000 ) ) ;
#26 = MANIFOLD_SOLID_BREP ( 'Imported1', #228 ) ;
#27 = CARTESIAN_POINT ( 'NONE',  ( -17.76414550343438800, 25.63720482785396700, 18.32112530531449900 ) ) ;
#28 = DIRECTION ( 'NONE',  ( -0.0000000000000000000, -0.0000000000000000000, -1.000000000000000000 ) ) ;
#29 = CARTESIAN_POINT ( 'NONE',  ( 9.992007221626412800E-016, 4.884981308350691100E-015, 10.60932072632300000 ) ) ;
#30 = CARTESIAN_POINT ( 'NONE',  ( 10.97167796535233300, 10.71684228273407900, -4.536195168475137200 ) ) ;
#31 = ORIENTED_EDGE ( 'NONE', *, *, #115, .T. ) ;
#32 = VERTEX_POINT ( 'NONE', #83 ) ;
#33 = MECHANICAL_CONTEXT ( 'NONE', #231, 'mechanical' ) ;
#34 = ORIENTED_EDGE ( 'NONE', *, *, #94, .T. ) ;
#35 = APPROVAL ( #112, 'UNSPECIFIED' ) ;
#36 = DATE_TIME_ROLE ( 'creation_date' ) ;
#37 = AXIS2_PLACEMENT_3D ( 'NONE', #29, #118, #210 ) ;
#38 = APPROVAL_DATE_TIME ( #41, #222 ) ;
#39 =( BOUNDED_SURFACE ( )  B_SPLINE_SURFACE ( 3, 3, ( 
 ( #21, #207, #208, #81 ),
 ( #150, #101, #116, #8 ),
 ( #220, #43, #135, #204 ),
 ( #27, #97, #154, #42 ) ),
 .UNSPECIFIED., .F., .F., .T. ) 
 B_SPLINE_SURFACE_WITH_KNOTS ( ( 4, 4 ),
 ( 4, 4 ),
 ( 0.0000000000000000000, 1.000000000000000000 ),
 ( 0.0000000000000000000, 1.000000000000000000 ),
 .UNSPECIFIED. ) 
 GEOMETRIC_REPRESENTATION_ITEM ( )  RATIONAL_B_SPLINE_SURFACE ( (
 ( 1.000000000000000000, 0.9478825466257608800, 0.9478825466257608800, 1.000000000000000000),
 ( 0.7974116551464076600, 0.7558525903892399100, 0.7558525903892399100, 0.7974116551464076600),
 ( 0.7974116551464076600, 0.7558525903892399100, 0.7558525903892399100, 0.7974116551464076600),
 ( 1.000000000000000000, 0.9478825466257608800, 0.9478825466257608800, 1.000000000000000000) ) ) 
 REPRESENTATION_ITEM ( '' )  SURFACE ( )  );
#40 = ORIENTED_EDGE ( 'NONE', *, *, #115, .F. ) ;
#41 = DATE_AND_TIME ( #145, #191 ) ;
#42 = CARTESIAN_POINT ( 'NONE',  ( -2.081668171172168500E-014, 25.63720482785396700, 10.85164469208266300 ) ) ;
#43 = CARTESIAN_POINT ( 'NONE',  ( -21.08563205851010000, 10.71684228273408300, -0.2834725138811874900 ) ) ;
#44 = CARTESIAN_POINT ( 'NONE',  ( 9.992007221626412800E-016, 4.884981308350691100E-015, 10.60932072632300000 ) ) ;
#45 = ORIENTED_EDGE ( 'NONE', *, *, #176, .F. ) ;
#46 = COORDINATED_UNIVERSAL_TIME_OFFSET ( 2, 0, .AHEAD. ) ;
#47 = CC_DESIGN_PERSON_AND_ORGANIZATION_ASSIGNMENT ( #157, #61, ( #84 ) ) ;
#48 = DIRECTION ( 'NONE',  ( 0.0000000000000000000, 0.0000000000000000000, 1.000000000000000000 ) ) ;
#49 = CARTESIAN_POINT ( 'NONE',  ( 10.97167796535233300, -10.71684228273407200, -4.536195168475131800 ) ) ;
#50 = CARTESIAN_POINT ( 'NONE',  ( 28.76052168683512300, -10.71684228273407600, 7.557049571313541500 ) ) ;
#51 = DIRECTION ( 'NONE',  ( 1.000000000000000000, 0.0000000000000000000, 0.0000000000000000000 ) ) ;
#52 = DIRECTION ( 'NONE',  ( 1.000000000000000000, -8.881784197001252300E-016, 0.0000000000000000000 ) ) ;
#53 = CC_DESIGN_APPROVAL ( #35, ( #163 ) ) ;
#54 = LINE ( 'NONE', #105, #127 ) ;
#55 = COORDINATED_UNIVERSAL_TIME_OFFSET ( 2, 0, .AHEAD. ) ;
#56 = ADVANCED_FACE ( 'NONE', ( #122 ), #39, .T. ) ;
#57 = AXIS2_PLACEMENT_3D ( 'NONE', #104, #13, #193 ) ;
#58 = EDGE_LOOP ( 'NONE', ( #14, #232, #206, #45, #216 ) ) ;
#59 = PERSON_AND_ORGANIZATION ( #87, #131 ) ;
#60 = CC_DESIGN_APPROVAL ( #222, ( #84 ) ) ;
#61 = PERSON_AND_ORGANIZATION_ROLE ( 'creator' ) ;
#62 = ORIENTED_EDGE ( 'NONE', *, *, #89, .T. ) ;
#63 = CARTESIAN_POINT ( 'NONE',  ( -25.39999999999999900, 7.995584178184967200E-015, 10.60932072632300000 ) ) ;
#64 = CC_DESIGN_SECURITY_CLASSIFICATION ( #163, ( #184 ) ) ;
#65 =( BOUNDED_SURFACE ( )  B_SPLINE_SURFACE ( 3, 3, ( 
 ( #229, #106, #190, #158 ),
 ( #170, #49, #172, #50 ),
 ( #141, #30, #139, #66 ),
 ( #192, #189, #68, #12 ) ),
 .UNSPECIFIED., .F., .F., .T. ) 
 B_SPLINE_SURFACE_WITH_KNOTS ( ( 4, 4 ),
 ( 4, 4 ),
 ( 0.0000000000000000000, 1.000000000000000000 ),
 ( 0.0000000000000000000, 1.000000000000000000 ),
 .UNSPECIFIED. ) 
 GEOMETRIC_REPRESENTATION_ITEM ( )  RATIONAL_B_SPLINE_SURFACE ( (
 ( 1.000000000000000000, 0.9478825466257608800, 0.9478825466257608800, 1.000000000000000000),
 ( 0.7974116551464076600, 0.7558525903892399100, 0.7558525903892399100, 0.7974116551464076600),
 ( 0.7974116551464076600, 0.7558525903892399100, 0.7558525903892399100, 0.7974116551464076600),
 ( 1.000000000000000000, 0.9478825466257608800, 0.9478825466257608800, 1.000000000000000000) ) ) 
 REPRESENTATION_ITEM ( '' )  SURFACE ( )  );
#66 = CARTESIAN_POINT ( 'NONE',  ( 28.76052168683513000, 10.71684228273407900, 7.557049571313538800 ) ) ;
#67 = DIRECTION ( 'NONE',  ( 1.000000000000000000, 0.0000000000000000000, 0.0000000000000000000 ) ) ;
#68 = CARTESIAN_POINT ( 'NONE',  ( 13.02369407613034200, 25.63720482785397100, 13.47836978575641900 ) ) ;
#69 = DIRECTION ( 'NONE',  ( -0.0000000000000000000, -0.0000000000000000000, -1.000000000000000000 ) ) ;
#70 = ORIENTED_EDGE ( 'NONE', *, *, #176, .T. ) ;
#71 = VERTEX_POINT ( 'NONE', #23 ) ;
#72 = APPLICATION_PROTOCOL_DEFINITION ( 'international standard', 'config_control_design', 1994, #231 ) ;
#73 = CARTESIAN_POINT ( 'NONE',  ( 25.39999999999999900, 4.884981308350691100E-015, 12.19999999999999900 ) ) ;
#74 = CIRCLE ( 'NONE', #140, 25.39999999999999900 ) ;
#75 = EDGE_CURVE ( 'NONE', #71, #129, #164, .T. ) ;
#76 = FACE_OUTER_BOUND ( 'NONE', #211, .T. ) ;
#77 = COORDINATED_UNIVERSAL_TIME_OFFSET ( 2, 0, .AHEAD. ) ;
#78 = SECURITY_CLASSIFICATION_LEVEL ( 'unclassified' ) ;
#79 = CIRCLE ( 'NONE', #187, 25.39999999999999900 ) ;
#80 = CC_DESIGN_PERSON_AND_ORGANIZATION_ASSIGNMENT ( #147, #166, ( #184 ) ) ;
#81 = CARTESIAN_POINT ( 'NONE',  ( -2.081668171172168500E-014, -25.63720482785394900, 10.85164469208267100 ) ) ;
#82 = VECTOR ( 'NONE', #205, 1000.000000000000000 ) ;
#83 = CARTESIAN_POINT ( 'NONE',  ( 25.39999999999999900, 4.884981308350691100E-015, 10.60932072632300000 ) ) ;
#84 = PRODUCT_DEFINITION ( 'UNKNOWN', '', #184, #85 ) ;
#85 = DESIGN_CONTEXT ( 'detailed design', #202, 'design' ) ;
#86 = DIRECTION ( 'NONE',  ( 0.0000000000000000000, -1.000000000000000000, 0.0000000000000000000 ) ) ;
#87 = PERSON ( 'UNSPECIFIED', 'UNSPECIFIED', 'UNSPECIFIED', ('UNSPECIFIED'), ('UNSPECIFIED'), ('UNSPECIFIED') ) ;
#88 =( NAMED_UNIT ( * ) PLANE_ANGLE_UNIT ( ) SI_UNIT ( $, .RADIAN. ) );
#89 = EDGE_CURVE ( 'NONE', #121, #32, #74, .T. ) ;
#90 = VERTEX_POINT ( 'NONE', #5 ) ;
#91 = PERSON_AND_ORGANIZATION ( #87, #131 ) ;
#92 = EDGE_CURVE ( 'NONE', #32, #90, #79, .T. ) ;
#93 = PERSON_AND_ORGANIZATION ( #87, #131 ) ;
#94 = EDGE_CURVE ( 'NONE', #71, #121, #107, .T. ) ;
#95 = DATE_TIME_ROLE ( 'classification_date' ) ;
#96 = APPROVAL_STATUS ( 'not_yet_approved' ) ;
#97 = CARTESIAN_POINT ( 'NONE',  ( -13.02369407613037400, 25.63720482785397100, 13.47836978575643700 ) ) ;
#98 = CYLINDRICAL_SURFACE ( 'NONE', #57, 25.39999999999999900 ) ;
#99 = AXIS2_PLACEMENT_3D ( 'NONE', #230, #69, #9 ) ;
#100 = DATE_AND_TIME ( #108, #209 ) ;
#101 = CARTESIAN_POINT ( 'NONE',  ( -21.08563205851010000, -10.71684228273406900, -0.2834725138811840000 ) ) ;
#102 = DIRECTION ( 'NONE',  ( 1.000000000000000000, 0.0000000000000000000, -4.112098451893469900E-016 ) ) ;
#103 = LOCAL_TIME ( 17, 10, 52.00000000000000000, #224 ) ;
#104 = CARTESIAN_POINT ( 'NONE',  ( 9.992007221626412800E-016, 4.884981308350691100E-015, 10.60932072632300000 ) ) ;
#105 = CARTESIAN_POINT ( 'NONE',  ( 25.39999999999999900, 4.884981308350691100E-015, 10.60932072632300000 ) ) ;
#106 = CARTESIAN_POINT ( 'NONE',  ( 6.776736733623241800, -25.63720482785395300, 10.85164469208267400 ) ) ;
#107 = CIRCLE ( 'NONE', #99, 25.39999999999999900 ) ;
#108 = CALENDAR_DATE ( 2018, 13, 12 ) ;
#109 = PRODUCT_RELATED_PRODUCT_CATEGORY ( 'detail', '', ( #133 ) ) ;
#110 = EDGE_CURVE ( 'NONE', #90, #121, #177, .T. ) ;
#111 = DATE_AND_TIME ( #117, #160 ) ;
#112 = APPROVAL_STATUS ( 'not_yet_approved' ) ;
#113 =( GEOMETRIC_REPRESENTATION_CONTEXT ( 3 ) GLOBAL_UNCERTAINTY_ASSIGNED_CONTEXT ( ( #138 ) ) GLOBAL_UNIT_ASSIGNED_CONTEXT ( ( #214, #88, #175 ) ) REPRESENTATION_CONTEXT ( 'NONE', 'WORKASPACE' ) );
#114 = ORIENTED_EDGE ( 'NONE', *, *, #110, .F. ) ;
#115 = EDGE_CURVE ( 'NONE', #90, #71, #212, .T. ) ;
#116 = CARTESIAN_POINT ( 'NONE',  ( -10.97167796535238300, -10.71684228273406900, -4.536195168475120300 ) ) ;
#117 = CALENDAR_DATE ( 2018, 13, 12 ) ;
#118 = DIRECTION ( 'NONE',  ( -0.0000000000000000000, -0.0000000000000000000, -1.000000000000000000 ) ) ;
#119 = CARTESIAN_POINT ( 'NONE',  ( 9.992007221626412800E-016, 4.884981308350691100E-015, 10.60932072632300000 ) ) ;
#120 = CARTESIAN_POINT ( 'NONE',  ( 0.0000000000000000000, 52.02000000000000300, 12.19999999999999900 ) ) ;
#121 = VERTEX_POINT ( 'NONE', #25 ) ;
#122 = FACE_OUTER_BOUND ( 'NONE', #144, .T. ) ;
#123 = CARTESIAN_POINT ( 'NONE',  ( -3.552713678800500100E-015, 1.065814103640150000E-014, 35.71000000000000100 ) ) ;
#124 = DIRECTION ( 'NONE',  ( 1.000000000000000000, 0.0000000000000000000, 0.0000000000000000000 ) ) ;
#125 = FACE_OUTER_BOUND ( 'NONE', #58, .T. ) ;
#126 = APPROVAL_DATE_TIME ( #100, #35 ) ;
#127 = VECTOR ( 'NONE', #48, 1000.000000000000000 ) ;
#128 = EDGE_CURVE ( 'NONE', #217, #129, #195, .T. ) ;
#129 = VERTEX_POINT ( 'NONE', #168 ) ;
#130 = APPROVAL_PERSON_ORGANIZATION ( #59, #222, #219 ) ;
#131 = ORGANIZATION ( 'UNSPECIFIED', 'UNSPECIFIED', '' ) ;
#132 = PERSON_AND_ORGANIZATION_ROLE ( 'classification_officer' ) ;
#133 = PRODUCT ( '110-1505E UVFS pl-cx 50.8 F75', '110-1505E UVFS pl-cx 50.8 F75', '', ( #33 ) ) ;
#134 = SHAPE_DEFINITION_REPRESENTATION ( #218, #179 ) ;
#135 = CARTESIAN_POINT ( 'NONE',  ( -10.97167796535238100, 10.71684228273408300, -4.536195168475125600 ) ) ;
#136 = CARTESIAN_POINT ( 'NONE',  ( 9.992007221626412800E-016, 4.884981308350691100E-015, 12.19999999999999900 ) ) ;
#137 = PERSON_AND_ORGANIZATION ( #87, #131 ) ;
#138 = UNCERTAINTY_MEASURE_WITH_UNIT (LENGTH_MEASURE( 1.000000000000000100E-005 ), #214, 'distance_accuracy_value', 'NONE');
#139 = CARTESIAN_POINT ( 'NONE',  ( 21.08563205851005800, 10.71684228273407900, -0.2834725138812117500 ) ) ;
#140 = AXIS2_PLACEMENT_3D ( 'NONE', #44, #169, #52 ) ;
#141 = CARTESIAN_POINT ( 'NONE',  ( -2.010234536348940500E-014, 10.71684228273407900, -4.536195168475132700 ) ) ;
#142 = AXIS2_PLACEMENT_3D ( 'NONE', #119, #11, #51 ) ;
#143 = DIRECTION ( 'NONE',  ( 0.0000000000000000000, 0.0000000000000000000, 1.000000000000000000 ) ) ;
#144 = EDGE_LOOP ( 'NONE', ( #114, #31, #34 ) ) ;
#145 = CALENDAR_DATE ( 2018, 13, 12 ) ;
#146 = AXIS2_PLACEMENT_3D ( 'NONE', #136, #28, #67 ) ;
#147 = PERSON_AND_ORGANIZATION ( #87, #131 ) ;
#148 = FACE_OUTER_BOUND ( 'NONE', #159, .T. ) ;
#149 = LOCAL_TIME ( 17, 10, 52.00000000000000000, #10 ) ;
#150 = CARTESIAN_POINT ( 'NONE',  ( -28.76052168683515800, -10.71684228273406900, 7.557049571313566400 ) ) ;
#151 = CC_DESIGN_PERSON_AND_ORGANIZATION_ASSIGNMENT ( #201, #165, ( #184 ) ) ;
#152 = ORIENTED_EDGE ( 'NONE', *, *, #128, .F. ) ;
#153 = APPROVAL_PERSON_ORGANIZATION ( #91, #35, #182 ) ;
#154 = CARTESIAN_POINT ( 'NONE',  ( -6.776736733623275600, 25.63720482785397100, 10.85164469208267200 ) ) ;
#155 = EDGE_CURVE ( 'NONE', #129, #217, #200, .T. ) ;
#156 = DIRECTION ( 'NONE',  ( -0.0000000000000000000, -0.0000000000000000000, -1.000000000000000000 ) ) ;
#157 = PERSON_AND_ORGANIZATION ( #87, #131 ) ;
#158 = CARTESIAN_POINT ( 'NONE',  ( 17.76414550343436000, -25.63720482785395300, 18.32112530531448900 ) ) ;
#159 = EDGE_LOOP ( 'NONE', ( #167, #223, #62 ) ) ;
#160 = LOCAL_TIME ( 17, 10, 52.00000000000000000, #77 ) ;
#161 = DATE_AND_TIME ( #186, #149 ) ;
#162 = EDGE_LOOP ( 'NONE', ( #152, #1 ) ) ;
#163 = SECURITY_CLASSIFICATION ( '', '', #78 ) ;
#164 = LINE ( 'NONE', #63, #82 ) ;
#165 = PERSON_AND_ORGANIZATION_ROLE ( 'design_supplier' ) ;
#166 = PERSON_AND_ORGANIZATION_ROLE ( 'creator' ) ;
#167 = ORIENTED_EDGE ( 'NONE', *, *, #92, .T. ) ;
#168 = CARTESIAN_POINT ( 'NONE',  ( -25.39999999999999900, 7.995584178184967200E-015, 12.19999999999999900 ) ) ;
#169 = DIRECTION ( 'NONE',  ( -0.0000000000000000000, -0.0000000000000000000, -1.000000000000000000 ) ) ;
#170 = CARTESIAN_POINT ( 'NONE',  ( -2.010234536348940100E-014, -10.71684228273407600, -4.536195168475128300 ) ) ;
#171 = DIRECTION ( 'NONE',  ( -0.0000000000000000000, -0.0000000000000000000, -1.000000000000000000 ) ) ;
#172 = CARTESIAN_POINT ( 'NONE',  ( 21.08563205851005400, -10.71684228273407200, -0.2834725138812065900 ) ) ;
#173 = ORIENTED_EDGE ( 'NONE', *, *, #92, .F. ) ;
#174 = CARTESIAN_POINT ( 'NONE',  ( 9.992007221626412800E-016, 4.884981308350691100E-015, 10.60932072632300000 ) ) ;
#175 =( NAMED_UNIT ( * ) SI_UNIT ( $, .STERADIAN. ) SOLID_ANGLE_UNIT ( ) );
#176 = EDGE_CURVE ( 'NONE', #32, #217, #54, .T. ) ;
#177 = CIRCLE ( 'NONE', #221, 35.71000000000000100 ) ;
#178 = PERSON_AND_ORGANIZATION ( #87, #131 ) ;
#179 = ADVANCED_BREP_SHAPE_REPRESENTATION ( '110-1505E UVFS pl-cx 50.8 F75', ( #26, #188 ), #113 ) ;
#180 = ADVANCED_FACE ( 'NONE', ( #148 ), #65, .T. ) ;
#181 = ADVANCED_FACE ( 'NONE', ( #125 ), #98, .T. ) ;
#182 = APPROVAL_ROLE ( '' ) ;
#183 = FACE_OUTER_BOUND ( 'NONE', #162, .T. ) ;
#184 = PRODUCT_DEFINITION_FORMATION_WITH_SPECIFIED_SOURCE ( 'ANY', '', #133, .NOT_KNOWN. ) ;
#185 = PERSON_AND_ORGANIZATION_ROLE ( 'design_owner' ) ;
#186 = CALENDAR_DATE ( 2018, 13, 12 ) ;
#187 = AXIS2_PLACEMENT_3D ( 'NONE', #174, #171, #225 ) ;
#188 = AXIS2_PLACEMENT_3D ( 'NONE', #194, #143, #124 ) ;
#189 = CARTESIAN_POINT ( 'NONE',  ( 6.776736733623244500, 25.63720482785397100, 10.85164469208266200 ) ) ;
#190 = CARTESIAN_POINT ( 'NONE',  ( 13.02369407613034000, -25.63720482785395300, 13.47836978575643000 ) ) ;
#191 = LOCAL_TIME ( 17, 10, 52.00000000000000000, #55 ) ;
#192 = CARTESIAN_POINT ( 'NONE',  ( -1.377471411663096900E-014, 25.63720482785396700, 10.85164469208266500 ) ) ;
#193 = DIRECTION ( 'NONE',  ( 1.000000000000000000, 0.0000000000000000000, 0.0000000000000000000 ) ) ;
#194 = CARTESIAN_POINT ( 'NONE',  ( 0.0000000000000000000, 0.0000000000000000000, 0.0000000000000000000 ) ) ;
#195 = CIRCLE ( 'NONE', #146, 25.39999999999999900 ) ;
#196 = APPROVAL_PERSON_ORGANIZATION ( #178, #24, #4 ) ;
#197 = DIRECTION ( 'NONE',  ( 0.0000000000000000000, 0.0000000000000000000, 1.000000000000000000 ) ) ;
#198 = ADVANCED_FACE ( 'NONE', ( #76 ), #22, .T. ) ;
#199 = CC_DESIGN_PERSON_AND_ORGANIZATION_ASSIGNMENT ( #137, #132, ( #163 ) ) ;
#200 = CIRCLE ( 'NONE', #7, 25.39999999999999900 ) ;
#201 = PERSON_AND_ORGANIZATION ( #87, #131 ) ;
#202 = APPLICATION_CONTEXT ( 'configuration controlled 3d designs of mechanical parts and assemblies' ) ;
#203 = APPROVAL_STATUS ( 'not_yet_approved' ) ;
#204 = CARTESIAN_POINT ( 'NONE',  ( -3.469446951953614200E-014, 10.71684228273408700, -4.536195168475132700 ) ) ;
#205 = DIRECTION ( 'NONE',  ( 0.0000000000000000000, 0.0000000000000000000, 1.000000000000000000 ) ) ;
#206 = ORIENTED_EDGE ( 'NONE', *, *, #155, .T. ) ;
#207 = CARTESIAN_POINT ( 'NONE',  ( -13.02369407613037400, -25.63720482785394900, 13.47836978575643800 ) ) ;
#208 = CARTESIAN_POINT ( 'NONE',  ( -6.776736733623273800, -25.63720482785394900, 10.85164469208267600 ) ) ;
#209 = LOCAL_TIME ( 17, 10, 52.00000000000000000, #46 ) ;
#210 = DIRECTION ( 'NONE',  ( 1.000000000000000000, 0.0000000000000000000, 0.0000000000000000000 ) ) ;
#211 = EDGE_LOOP ( 'NONE', ( #19, #40, #173, #70, #6 ) ) ;
#212 = CIRCLE ( 'NONE', #37, 25.39999999999999900 ) ;
#213 = CARTESIAN_POINT ( 'NONE',  ( 9.992007221626412800E-016, 4.884981308350691100E-015, 12.19999999999999900 ) ) ;
#214 =( LENGTH_UNIT ( ) NAMED_UNIT ( * ) SI_UNIT ( .MILLI., .METRE. ) );
#215 = CC_DESIGN_PERSON_AND_ORGANIZATION_ASSIGNMENT ( #93, #185, ( #133 ) ) ;
#216 = ORIENTED_EDGE ( 'NONE', *, *, #89, .F. ) ;
#217 = VERTEX_POINT ( 'NONE', #73 ) ;
#218 = PRODUCT_DEFINITION_SHAPE ( 'NONE', 'NONE',  #84 ) ;
#219 = APPROVAL_ROLE ( '' ) ;
#220 = CARTESIAN_POINT ( 'NONE',  ( -28.76052168683515800, 10.71684228273408700, 7.557049571313564600 ) ) ;
#221 = AXIS2_PLACEMENT_3D ( 'NONE', #123, #102, #86 ) ;
#222 = APPROVAL ( #203, 'UNSPECIFIED' ) ;
#223 = ORIENTED_EDGE ( 'NONE', *, *, #110, .T. ) ;
#224 = COORDINATED_UNIVERSAL_TIME_OFFSET ( 2, 0, .AHEAD. ) ;
#225 = DIRECTION ( 'NONE',  ( 1.000000000000000000, 0.0000000000000000000, 0.0000000000000000000 ) ) ;
#226 = DIRECTION ( 'NONE',  ( 1.000000000000000000, 0.0000000000000000000, 0.0000000000000000000 ) ) ;
#227 = PLANE ( 'NONE',  #235 ) ;
#228 = CLOSED_SHELL ( 'NONE', ( #180, #181, #56, #198, #234 ) ) ;
#229 = CARTESIAN_POINT ( 'NONE',  ( -1.377471411663096500E-014, -25.63720482785395300, 10.85164469208267600 ) ) ;
#230 = CARTESIAN_POINT ( 'NONE',  ( 9.992007221626412800E-016, 4.884981308350691100E-015, 10.60932072632300000 ) ) ;
#231 = APPLICATION_CONTEXT ( 'configuration controlled 3d designs of mechanical parts and assemblies' ) ;
#232 = ORIENTED_EDGE ( 'NONE', *, *, #75, .T. ) ;
#233 = APPROVAL_DATE_TIME ( #161, #24 ) ;
#234 = ADVANCED_FACE ( 'NONE', ( #183 ), #227, .T. ) ;
#235 = AXIS2_PLACEMENT_3D ( 'NONE', #120, #197, #17 ) ;
ENDSEC;
END-ISO-10303-21;
