ISO-10303-21;
HEADER;
FILE_DESCRIPTION (( 'STEP AP203' ),
    '1' );
FILE_NAME ('110-1475E UVFS pl-cx 38.1 F5000.STEP',
    '2018-12-13T15:03:46',
    ( '' ),
    ( '' ),
    'SwSTEP 2.0',
    'SolidWorks 2017',
    '' );
FILE_SCHEMA (( 'CONFIG_CONTROL_DESIGN' ));
ENDSEC;

DATA;
#1 = CARTESIAN_POINT ( 'NONE',  ( 0.0000000000000000000, 0.0000000000000000000, 0.0000000000000000000 ) ) ;
#2 = CARTESIAN_POINT ( 'NONE',  ( 19.16450711951447900, -6.426338898258451100, 0.05113181779235029300 ) ) ;
#3 = CARTESIAN_POINT ( 'NONE',  ( -12.77645889103022700, -6.426338898258462600, -0.0003078569801462862500 ) ) ;
#4 = COORDINATED_UNIVERSAL_TIME_OFFSET ( 2, 0, .AHEAD. ) ;
#5 = VECTOR ( 'NONE', #157, 1000.000000000000000 ) ;
#6 = AXIS2_PLACEMENT_3D ( 'NONE', #209, #229, #139 ) ;
#7 = CARTESIAN_POINT ( 'NONE',  ( 6.388255333781810200, -6.426338898258455500, -0.02602790282641555600 ) ) ;
#8 = PERSON_AND_ORGANIZATION ( #25, #23 ) ;
#9 = CARTESIAN_POINT ( 'NONE',  ( -6.388255333782367100, 6.426338898258543400, -0.02602790282622062200 ) ) ;
#10 = CARTESIAN_POINT ( 'NONE',  ( -12.77590000810778100, 19.27859502973515000, 0.1038009214251107600 ) ) ;
#11 = CALENDAR_DATE ( 2018, 13, 12 ) ;
#12 = CIRCLE ( 'NONE', #46, 19.05000000000000100 ) ;
#13 = CARTESIAN_POINT ( 'NONE',  ( -4.822531263215523700E-013, -19.27859502973506900, 0.07808200065559257900 ) ) ;
#14 = MECHANICAL_CONTEXT ( 'NONE', #141, 'mechanical' ) ;
#15 = APPROVAL_ROLE ( '' ) ;
#16 = SECURITY_CLASSIFICATION_LEVEL ( 'unclassified' ) ;
#17 = CARTESIAN_POINT ( 'NONE',  ( -12.77645889103023100, 6.426338898258540800, -0.0003078569801467606400 ) ) ;
#18 = CARTESIAN_POINT ( 'NONE',  ( 6.388255333781804900, 6.426338898258547900, -0.02602790282641601800 ) ) ;
#19 = SHAPE_DEFINITION_REPRESENTATION ( #42, #221 ) ;
#20 = EDGE_CURVE ( 'NONE', #56, #118, #144, .T. ) ;
#21 = CIRCLE ( 'NONE', #163, 2380.000000000000000 ) ;
#22 = CARTESIAN_POINT ( 'NONE',  ( 6.387975891188140100, 19.27859502973515800, 0.07808200065539913600 ) ) ;
#23 = ORGANIZATION ( 'UNSPECIFIED', 'UNSPECIFIED', '' ) ;
#24 = APPROVAL ( #194, 'UNSPECIFIED' ) ;
#25 = PERSON ( 'UNSPECIFIED', 'UNSPECIFIED', 'UNSPECIFIED', ('UNSPECIFIED'), ('UNSPECIFIED'), ('UNSPECIFIED') ) ;
#26 = DIRECTION ( 'NONE',  ( 0.0000000000000000000, 0.0000000000000000000, 1.000000000000000000 ) ) ;
#27 = CALENDAR_DATE ( 2018, 13, 12 ) ;
#28 = EDGE_LOOP ( 'NONE', ( #44, #87, #195, #156, #126 ) ) ;
#29 = ORIENTED_EDGE ( 'NONE', *, *, #211, .F. ) ;
#30 = APPLICATION_PROTOCOL_DEFINITION ( 'international standard', 'config_control_design', 1994, #141 ) ;
#31 = AXIS2_PLACEMENT_3D ( 'NONE', #97, #100, #78 ) ;
#32 =( NAMED_UNIT ( * ) SI_UNIT ( $, .STERADIAN. ) SOLID_ANGLE_UNIT ( ) );
#33 = APPLICATION_CONTEXT ( 'configuration controlled 3d designs of mechanical parts and assemblies' ) ;
#34 = APPROVAL_DATE_TIME ( #230, #114 ) ;
#35 = APPLICATION_PROTOCOL_DEFINITION ( 'international standard', 'config_control_design', 1994, #33 ) ;
#36 = ORIENTED_EDGE ( 'NONE', *, *, #173, .T. ) ;
#37 = CARTESIAN_POINT ( 'NONE',  ( 19.16450711951447500, 6.426338898258553200, 0.05113181779234983500 ) ) ;
#38 = CC_DESIGN_APPROVAL ( #114, ( #184 ) ) ;
#39 = CALENDAR_DATE ( 2018, 13, 12 ) ;
#40 = AXIS2_PLACEMENT_3D ( 'NONE', #204, #154, #48 ) ;
#41 = ORIENTED_EDGE ( 'NONE', *, *, #103, .T. ) ;
#42 = PRODUCT_DEFINITION_SHAPE ( 'NONE', 'NONE',  #191 ) ;
#43 = LOCAL_TIME ( 17, 3, 46.00000000000000000, #212 ) ;
#44 = ORIENTED_EDGE ( 'NONE', *, *, #148, .F. ) ;
#45 = DIRECTION ( 'NONE',  ( 1.000000000000000000, 0.0000000000000000000, 0.0000000000000000000 ) ) ;
#46 = AXIS2_PLACEMENT_3D ( 'NONE', #155, #69, #51 ) ;
#47 = CARTESIAN_POINT ( 'NONE',  ( -19.05000000000000400, 1.444773732675583000E-015, 0.07624124216954050700 ) ) ;
#48 = DIRECTION ( 'NONE',  ( 1.000000000000000000, 0.0000000000000000000, -0.0000000000000000000 ) ) ;
#49 = LOCAL_TIME ( 17, 3, 46.00000000000000000, #176 ) ;
#50 = ADVANCED_FACE ( 'NONE', ( #151 ), #224, .T. ) ;
#51 = DIRECTION ( 'NONE',  ( 1.000000000000000000, -8.881784197001252300E-016, 0.0000000000000000000 ) ) ;
#52 = ADVANCED_FACE ( 'NONE', ( #203 ), #233, .T. ) ;
#53 = APPROVAL_ROLE ( '' ) ;
#54 = FACE_OUTER_BOUND ( 'NONE', #28, .T. ) ;
#55 = PERSON_AND_ORGANIZATION_ROLE ( 'classification_officer' ) ;
#56 = VERTEX_POINT ( 'NONE', #117 ) ;
#57 = CARTESIAN_POINT ( 'NONE',  ( 9.871568573736921100E-014, -19.27859502973506900, 0.07808200065539949700 ) ) ;
#58 = APPROVAL_DATE_TIME ( #213, #106 ) ;
#59 = LOCAL_TIME ( 17, 3, 46.00000000000000000, #4 ) ;
#60 = CARTESIAN_POINT ( 'NONE',  ( 12.77590000810706700, -19.27859502973506500, 0.1038009214250534600 ) ) ;
#61 = DIRECTION ( 'NONE',  ( 1.000000000000000000, 0.0000000000000000000, 0.0000000000000000000 ) ) ;
#62 = CC_DESIGN_PERSON_AND_ORGANIZATION_ASSIGNMENT ( #130, #84, ( #171 ) ) ;
#63 = EDGE_LOOP ( 'NONE', ( #36, #220, #41 ) ) ;
#64 = CARTESIAN_POINT ( 'NONE',  ( -4.926614671774133200E-013, 6.426338898258546100, -0.02602790282622253700 ) ) ;
#65 = CARTESIAN_POINT ( 'NONE',  ( 19.04999999999999700, -8.881784197001250400E-016, 4.000000000000000000 ) ) ;
#66 = ORIENTED_EDGE ( 'NONE', *, *, #121, .T. ) ;
#67 = CARTESIAN_POINT ( 'NONE',  ( -4.662936703425659800E-015, -8.881784197001250400E-016, 0.07624124216954050700 ) ) ;
#68 = ADVANCED_FACE ( 'NONE', ( #177 ), #208, .T. ) ;
#69 = DIRECTION ( 'NONE',  ( -0.0000000000000000000, -0.0000000000000000000, -1.000000000000000000 ) ) ;
#70 = CC_DESIGN_PERSON_AND_ORGANIZATION_ASSIGNMENT ( #133, #110, ( #171 ) ) ;
#71 = CARTESIAN_POINT ( 'NONE',  ( -6.388255333782363500, -6.426338898258459900, -0.02602790282622018100 ) ) ;
#72 =( GEOMETRIC_REPRESENTATION_CONTEXT ( 3 ) GLOBAL_UNCERTAINTY_ASSIGNED_CONTEXT ( ( #180 ) ) GLOBAL_UNIT_ASSIGNED_CONTEXT ( ( #215, #86, #32 ) ) REPRESENTATION_CONTEXT ( 'NONE', 'WORKASPACE' ) );
#73 = LOCAL_TIME ( 17, 3, 46.00000000000000000, #190 ) ;
#74 = PERSON_AND_ORGANIZATION ( #25, #23 ) ;
#75 = ORIENTED_EDGE ( 'NONE', *, *, #83, .T. ) ;
#76 = PLANE ( 'NONE',  #40 ) ;
#77 = CARTESIAN_POINT ( 'NONE',  ( -4.961309141293668300E-013, 19.27859502973515400, 0.07808200065559257900 ) ) ;
#78 = DIRECTION ( 'NONE',  ( 1.000000000000000000, 0.0000000000000000000, 0.0000000000000000000 ) ) ;
#79 = CIRCLE ( 'NONE', #6, 19.05000000000000100 ) ;
#80 = CARTESIAN_POINT ( 'NONE',  ( -4.662936703425659800E-015, -8.881784197001250400E-016, 0.07624124216954050700 ) ) ;
#81 = DIRECTION ( 'NONE',  ( -0.0000000000000000000, -0.0000000000000000000, -1.000000000000000000 ) ) ;
#82 = CALENDAR_DATE ( 2018, 13, 12 ) ;
#83 = EDGE_CURVE ( 'NONE', #179, #134, #116, .T. ) ;
#84 = PERSON_AND_ORGANIZATION_ROLE ( 'creator' ) ;
#85 = CC_DESIGN_APPROVAL ( #106, ( #171 ) ) ;
#86 =( NAMED_UNIT ( * ) PLANE_ANGLE_UNIT ( ) SI_UNIT ( $, .RADIAN. ) );
#87 = ORIENTED_EDGE ( 'NONE', *, *, #20, .F. ) ;
#88 = AXIS2_PLACEMENT_3D ( 'NONE', #166, #96, #45 ) ;
#89 = DIRECTION ( 'NONE',  ( 1.000000000000000000, 0.0000000000000000000, 0.0000000000000000000 ) ) ;
#90 = DATE_AND_TIME ( #39, #49 ) ;
#91 = ORIENTED_EDGE ( 'NONE', *, *, #83, .F. ) ;
#92 = CC_DESIGN_APPROVAL ( #24, ( #191 ) ) ;
#93 = CARTESIAN_POINT ( 'NONE',  ( 12.77645889102951500, -6.426338898258452800, -0.0003078569802035592300 ) ) ;
#94 = LOCAL_TIME ( 17, 3, 46.00000000000000000, #150 ) ;
#95 = LINE ( 'NONE', #47, #5 ) ;
#96 = DIRECTION ( 'NONE',  ( 0.0000000000000000000, 0.0000000000000000000, 1.000000000000000000 ) ) ;
#97 = CARTESIAN_POINT ( 'NONE',  ( -4.662936703425659800E-015, -8.881784197001250400E-016, 4.000000000000000000 ) ) ;
#98 = CC_DESIGN_DATE_AND_TIME_ASSIGNMENT ( #123, #234, ( #191 ) ) ;
#99 = PERSON_AND_ORGANIZATION ( #25, #23 ) ;
#100 = DIRECTION ( 'NONE',  ( -0.0000000000000000000, -0.0000000000000000000, -1.000000000000000000 ) ) ;
#101 = FACE_OUTER_BOUND ( 'NONE', #183, .T. ) ;
#102 = DIRECTION ( 'NONE',  ( -0.0000000000000000000, -0.0000000000000000000, -1.000000000000000000 ) ) ;
#103 = EDGE_CURVE ( 'NONE', #182, #226, #12, .T. ) ;
#104 = ADVANCED_FACE ( 'NONE', ( #101 ), #76, .T. ) ;
#105 = CARTESIAN_POINT ( 'NONE',  ( -19.05000000000000400, 1.444773732675583000E-015, 4.000000000000000000 ) ) ;
#106 = APPROVAL ( #159, 'UNSPECIFIED' ) ;
#107 = CARTESIAN_POINT ( 'NONE',  ( -19.05000000000000400, 1.444773732675583000E-015, 0.07624124216954050700 ) ) ;
#108 = DATE_AND_TIME ( #158, #73 ) ;
#109 = DATE_TIME_ROLE ( 'classification_date' ) ;
#110 = PERSON_AND_ORGANIZATION_ROLE ( 'design_supplier' ) ;
#111 = EDGE_LOOP ( 'NONE', ( #223, #152, #75, #29, #140 ) ) ;
#112 = DESIGN_CONTEXT ( 'detailed design', #33, 'design' ) ;
#113 = PERSON_AND_ORGANIZATION ( #25, #23 ) ;
#114 = APPROVAL ( #235, 'UNSPECIFIED' ) ;
#115 = EDGE_CURVE ( 'NONE', #56, #182, #21, .T. ) ;
#116 = CIRCLE ( 'NONE', #31, 19.05000000000000100 ) ;
#117 = CARTESIAN_POINT ( 'NONE',  ( 9.862626751264942700E-014, -19.05000000001217600, 0.07624124216987286700 ) ) ;
#118 = VERTEX_POINT ( 'NONE', #107 ) ;
#119 = CARTESIAN_POINT ( 'NONE',  ( -6.387975891188697000, -19.27859502973507200, 0.07808200065559450800 ) ) ;
#120 = CARTESIAN_POINT ( 'NONE',  ( 8.374046253601603800E-014, 19.05000000001217600, 0.07624124216987286700 ) ) ;
#121 = EDGE_CURVE ( 'NONE', #118, #182, #207, .T. ) ;
#122 = CARTESIAN_POINT ( 'NONE',  ( 19.04999999999999700, -8.881784197001250400E-016, 0.07624124216954050700 ) ) ;
#123 = DATE_AND_TIME ( #11, #59 ) ;
#124 = AXIS2_PLACEMENT_3D ( 'NONE', #67, #26, #89 ) ;
#125 = AXIS2_PLACEMENT_3D ( 'NONE', #219, #129, #61 ) ;
#126 = ORIENTED_EDGE ( 'NONE', *, *, #153, .T. ) ;
#127 = CARTESIAN_POINT ( 'NONE',  ( 8.866671933393501300E-014, 6.426338898258545200, -0.02602790282641565700 ) ) ;
#128 = CARTESIAN_POINT ( 'NONE',  ( 19.16366880305781000, -19.27859502973506200, 0.1552383460627294000 ) ) ;
#129 = DIRECTION ( 'NONE',  ( -0.0000000000000000000, -0.0000000000000000000, -1.000000000000000000 ) ) ;
#130 = PERSON_AND_ORGANIZATION ( #25, #23 ) ;
#131 = APPROVAL_PERSON_ORGANIZATION ( #136, #106, #15 ) ;
#132 = ORIENTED_EDGE ( 'NONE', *, *, #115, .F. ) ;
#133 = PERSON_AND_ORGANIZATION ( #25, #23 ) ;
#134 = VERTEX_POINT ( 'NONE', #65 ) ;
#135 = CARTESIAN_POINT ( 'NONE',  ( -19.16366880305867000, -19.27859502973507600, 0.1552383460627915200 ) ) ;
#136 = PERSON_AND_ORGANIZATION ( #25, #23 ) ;
#137 = CLOSED_SHELL ( 'NONE', ( #50, #52, #68, #206, #104 ) ) ;
#138 = CARTESIAN_POINT ( 'NONE',  ( -4.662936703425659800E-015, -8.881784197001250400E-016, 4.000000000000000000 ) ) ;
#139 = DIRECTION ( 'NONE',  ( 1.000000000000000000, 0.0000000000000000000, 0.0000000000000000000 ) ) ;
#140 = ORIENTED_EDGE ( 'NONE', *, *, #103, .F. ) ;
#141 = APPLICATION_CONTEXT ( 'configuration controlled 3d designs of mechanical parts and assemblies' ) ;
#142 = CARTESIAN_POINT ( 'NONE',  ( 19.04999999999999700, -8.881784197001250400E-016, 0.07624124216954050700 ) ) ;
#143 = PERSON_AND_ORGANIZATION_ROLE ( 'creator' ) ;
#144 = CIRCLE ( 'NONE', #125, 19.05000000000000100 ) ;
#145 = PERSON_AND_ORGANIZATION_ROLE ( 'design_owner' ) ;
#146 = CC_DESIGN_SECURITY_CLASSIFICATION ( #184, ( #171 ) ) ;
#147 = VECTOR ( 'NONE', #214, 1000.000000000000000 ) ;
#148 = EDGE_CURVE ( 'NONE', #118, #179, #95, .T. ) ;
#149 = CARTESIAN_POINT ( 'NONE',  ( 6.387975891188156100, -19.27859502973506500, 0.07808200065539913600 ) ) ;
#150 = COORDINATED_UNIVERSAL_TIME_OFFSET ( 2, 0, .AHEAD. ) ;
#151 = FACE_OUTER_BOUND ( 'NONE', #63, .T. ) ;
#152 = ORIENTED_EDGE ( 'NONE', *, *, #148, .T. ) ;
#153 = EDGE_CURVE ( 'NONE', #134, #179, #187, .T. ) ;
#154 = DIRECTION ( 'NONE',  ( 0.0000000000000000000, 0.0000000000000000000, 1.000000000000000000 ) ) ;
#155 = CARTESIAN_POINT ( 'NONE',  ( -4.662936703425659800E-015, -8.881784197001250400E-016, 0.07624124216954050700 ) ) ;
#156 = ORIENTED_EDGE ( 'NONE', *, *, #211, .T. ) ;
#157 = DIRECTION ( 'NONE',  ( 0.0000000000000000000, 0.0000000000000000000, 1.000000000000000000 ) ) ;
#158 = CALENDAR_DATE ( 2018, 13, 12 ) ;
#159 = APPROVAL_STATUS ( 'not_yet_approved' ) ;
#160 = CARTESIAN_POINT ( 'NONE',  ( -19.16450711951535300, 6.426338898258539000, 0.05113181779241193100 ) ) ;
#161 = ORIENTED_EDGE ( 'NONE', *, *, #20, .T. ) ;
#162 = CARTESIAN_POINT ( 'NONE',  ( 8.365125498482607400E-014, 19.27859502973515400, 0.07808200065539949700 ) ) ;
#163 = AXIS2_PLACEMENT_3D ( 'NONE', #189, #188, #192 ) ;
#164 = APPROVAL_PERSON_ORGANIZATION ( #74, #114, #210 ) ;
#165 = LINE ( 'NONE', #122, #147 ) ;
#166 = CARTESIAN_POINT ( 'NONE',  ( -4.662936703425659800E-015, -8.881784197001250400E-016, 0.07624124216954050700 ) ) ;
#167 = CARTESIAN_POINT ( 'NONE',  ( -19.16366880305868400, 19.27859502973514700, 0.1552383460627915200 ) ) ;
#168 = CARTESIAN_POINT ( 'NONE',  ( 12.77590000810705300, 19.27859502973515800, 0.1038009214250534400 ) ) ;
#169 = CC_DESIGN_DATE_AND_TIME_ASSIGNMENT ( #90, #109, ( #184 ) ) ;
#170 = CYLINDRICAL_SURFACE ( 'NONE', #124, 19.05000000000000100 ) ;
#171 = PRODUCT_DEFINITION_FORMATION_WITH_SPECIFIED_SOURCE ( 'ANY', '', #186, .NOT_KNOWN. ) ;
#172 = DIRECTION ( 'NONE',  ( 1.000000000000000000, 0.0000000000000000000, 0.0000000000000000000 ) ) ;
#173 = EDGE_CURVE ( 'NONE', #226, #56, #79, .T. ) ;
#174 = ORIENTED_EDGE ( 'NONE', *, *, #153, .F. ) ;
#175 = AXIS2_PLACEMENT_3D ( 'NONE', #80, #102, #228 ) ;
#176 = COORDINATED_UNIVERSAL_TIME_OFFSET ( 2, 0, .AHEAD. ) ;
#177 = FACE_OUTER_BOUND ( 'NONE', #231, .T. ) ;
#178 = DIRECTION ( 'NONE',  ( 0.0000000000000000000, 0.0000000000000000000, 1.000000000000000000 ) ) ;
#179 = VERTEX_POINT ( 'NONE', #105 ) ;
#180 = UNCERTAINTY_MEASURE_WITH_UNIT (LENGTH_MEASURE( 1.000000000000000100E-005 ), #215, 'distance_accuracy_value', 'NONE');
#181 = CARTESIAN_POINT ( 'NONE',  ( 12.77645889102951100, 6.426338898258549600, -0.0003078569802040200200 ) ) ;
#182 = VERTEX_POINT ( 'NONE', #120 ) ;
#183 = EDGE_LOOP ( 'NONE', ( #174, #91 ) ) ;
#184 = SECURITY_CLASSIFICATION ( '', '', #16 ) ;
#185 = CARTESIAN_POINT ( 'NONE',  ( -6.387975891188711200, 19.27859502973515000, 0.07808200065559450800 ) ) ;
#186 = PRODUCT ( '110-1475E UVFS pl-cx 38.1 F5000', '110-1475E UVFS pl-cx 38.1 F5000', '', ( #14 ) ) ;
#187 = CIRCLE ( 'NONE', #225, 19.05000000000000100 ) ;
#188 = DIRECTION ( 'NONE',  ( 1.000000000000000000, 3.907035426935399900E-016, -5.722465264600830200E-017 ) ) ;
#189 = CARTESIAN_POINT ( 'NONE',  ( 2.273736754432320100E-013, 0.0000000000000000000, 2380.000000000000000 ) ) ;
#190 = COORDINATED_UNIVERSAL_TIME_OFFSET ( 2, 0, .AHEAD. ) ;
#191 = PRODUCT_DEFINITION ( 'UNKNOWN', '', #171, #112 ) ;
#192 = DIRECTION ( 'NONE',  ( 3.907035426935399000E-016, -1.000000000000000000, -7.463684199160716300E-016 ) ) ;
#193 = APPROVAL_DATE_TIME ( #108, #24 ) ;
#194 = APPROVAL_STATUS ( 'not_yet_approved' ) ;
#195 = ORIENTED_EDGE ( 'NONE', *, *, #173, .F. ) ;
#196 = CARTESIAN_POINT ( 'NONE',  ( -4.891920202254597000E-013, -6.426338898258458200, -0.02602790282622210300 ) ) ;
#197 = CC_DESIGN_PERSON_AND_ORGANIZATION_ASSIGNMENT ( #218, #55, ( #184 ) ) ;
#198 = DIRECTION ( 'NONE',  ( 1.000000000000000000, 0.0000000000000000000, 0.0000000000000000000 ) ) ;
#199 = AXIS2_PLACEMENT_3D ( 'NONE', #1, #178, #198 ) ;
#200 = MANIFOLD_SOLID_BREP ( 'Imported1', #137 ) ;
#201 = CARTESIAN_POINT ( 'NONE',  ( 9.368830608213278200E-014, -6.426338898258459100, -0.02602790282641519500 ) ) ;
#202 = CC_DESIGN_PERSON_AND_ORGANIZATION_ASSIGNMENT ( #8, #145, ( #186 ) ) ;
#203 = FACE_OUTER_BOUND ( 'NONE', #111, .T. ) ;
#204 = CARTESIAN_POINT ( 'NONE',  ( 0.0000000000000000000, 39.06600000000000300, 4.000000000000000000 ) ) ;
#205 = PRODUCT_RELATED_PRODUCT_CATEGORY ( 'detail', '', ( #186 ) ) ;
#206 = ADVANCED_FACE ( 'NONE', ( #54 ), #170, .T. ) ;
#207 = CIRCLE ( 'NONE', #175, 19.05000000000000100 ) ;
#208 =( BOUNDED_SURFACE ( )  B_SPLINE_SURFACE ( 3, 3, ( 
 ( #135, #227, #119, #13 ),
 ( #216, #3, #71, #196 ),
 ( #160, #17, #9, #64 ),
 ( #167, #10, #185, #77 ) ),
 .UNSPECIFIED., .F., .F., .F. ) 
 B_SPLINE_SURFACE_WITH_KNOTS ( ( 4, 4 ),
 ( 4, 4 ),
 ( 0.0000000000000000000, 1.000000000000000000 ),
 ( 0.0000000000000000000, 1.000000000000000000 ),
 .UNSPECIFIED. ) 
 GEOMETRIC_REPRESENTATION_ITEM ( )  RATIONAL_B_SPLINE_SURFACE ( (
 ( 1.000000000000000000, 0.9999945966954140200, 0.9999945966954140200, 1.000000000000000000),
 ( 0.9999781282911328600, 0.9999727251047263500, 0.9999727251047263500, 0.9999781282911328600),
 ( 0.9999781282911328600, 0.9999727251047263500, 0.9999727251047263500, 0.9999781282911328600),
 ( 1.000000000000000000, 0.9999945966954140200, 0.9999945966954140200, 1.000000000000000000) ) ) 
 REPRESENTATION_ITEM ( '' )  SURFACE ( )  );
#209 = CARTESIAN_POINT ( 'NONE',  ( -4.662936703425659800E-015, -8.881784197001250400E-016, 0.07624124216954050700 ) ) ;
#210 = APPROVAL_ROLE ( '' ) ;
#211 = EDGE_CURVE ( 'NONE', #226, #134, #165, .T. ) ;
#212 = COORDINATED_UNIVERSAL_TIME_OFFSET ( 2, 0, .AHEAD. ) ;
#213 = DATE_AND_TIME ( #27, #94 ) ;
#214 = DIRECTION ( 'NONE',  ( 0.0000000000000000000, 0.0000000000000000000, 1.000000000000000000 ) ) ;
#215 =( LENGTH_UNIT ( ) NAMED_UNIT ( * ) SI_UNIT ( .MILLI., .METRE. ) );
#216 = CARTESIAN_POINT ( 'NONE',  ( -19.16450711951534900, -6.426338898258465300, 0.05113181779241240300 ) ) ;
#217 = CC_DESIGN_PERSON_AND_ORGANIZATION_ASSIGNMENT ( #113, #143, ( #191 ) ) ;
#218 = PERSON_AND_ORGANIZATION ( #25, #23 ) ;
#219 = CARTESIAN_POINT ( 'NONE',  ( -4.662936703425659800E-015, -8.881784197001250400E-016, 0.07624124216954050700 ) ) ;
#220 = ORIENTED_EDGE ( 'NONE', *, *, #115, .T. ) ;
#221 = ADVANCED_BREP_SHAPE_REPRESENTATION ( '110-1475E UVFS pl-cx 38.1 F5000', ( #200, #199 ), #72 ) ;
#222 = CARTESIAN_POINT ( 'NONE',  ( 19.16366880305779600, 19.27859502973516100, 0.1552383460627294000 ) ) ;
#223 = ORIENTED_EDGE ( 'NONE', *, *, #121, .F. ) ;
#224 =( BOUNDED_SURFACE ( )  B_SPLINE_SURFACE ( 3, 3, ( 
 ( #57, #149, #60, #128 ),
 ( #201, #7, #93, #2 ),
 ( #127, #18, #181, #37 ),
 ( #162, #22, #168, #222 ) ),
 .UNSPECIFIED., .F., .F., .F. ) 
 B_SPLINE_SURFACE_WITH_KNOTS ( ( 4, 4 ),
 ( 4, 4 ),
 ( 0.0000000000000000000, 1.000000000000000000 ),
 ( 0.0000000000000000000, 1.000000000000000000 ),
 .UNSPECIFIED. ) 
 GEOMETRIC_REPRESENTATION_ITEM ( )  RATIONAL_B_SPLINE_SURFACE ( (
 ( 1.000000000000000000, 0.9999945966954140200, 0.9999945966954140200, 1.000000000000000000),
 ( 0.9999781282911328600, 0.9999727251047263500, 0.9999727251047263500, 0.9999781282911328600),
 ( 0.9999781282911328600, 0.9999727251047263500, 0.9999727251047263500, 0.9999781282911328600),
 ( 1.000000000000000000, 0.9999945966954140200, 0.9999945966954140200, 1.000000000000000000) ) ) 
 REPRESENTATION_ITEM ( '' )  SURFACE ( )  );
#225 = AXIS2_PLACEMENT_3D ( 'NONE', #138, #81, #172 ) ;
#226 = VERTEX_POINT ( 'NONE', #142 ) ;
#227 = CARTESIAN_POINT ( 'NONE',  ( -12.77590000810776900, -19.27859502973507200, 0.1038009214251107600 ) ) ;
#228 = DIRECTION ( 'NONE',  ( 1.000000000000000000, 0.0000000000000000000, 0.0000000000000000000 ) ) ;
#229 = DIRECTION ( 'NONE',  ( -0.0000000000000000000, -0.0000000000000000000, -1.000000000000000000 ) ) ;
#230 = DATE_AND_TIME ( #82, #43 ) ;
#231 = EDGE_LOOP ( 'NONE', ( #132, #161, #66 ) ) ;
#232 = APPROVAL_PERSON_ORGANIZATION ( #99, #24, #53 ) ;
#233 = CYLINDRICAL_SURFACE ( 'NONE', #88, 19.05000000000000100 ) ;
#234 = DATE_TIME_ROLE ( 'creation_date' ) ;
#235 = APPROVAL_STATUS ( 'not_yet_approved' ) ;
ENDSEC;
END-ISO-10303-21;
