ISO-10303-21;
HEADER;
FILE_DESCRIPTION (( 'STEP AP203' ),
    '1' );
FILE_NAME ('110-1465E UVFS pl-cx 38.1 F3000.STEP',
    '2018-12-13T15:04:02',
    ( '' ),
    ( '' ),
    'SwSTEP 2.0',
    'SolidWorks 2017',
    '' );
FILE_SCHEMA (( 'CONFIG_CONTROL_DESIGN' ));
ENDSEC;

DATA;
#1 = CARTESIAN_POINT ( 'NONE',  ( -1.214306433183765000E-012, 6.426585854308737700, -0.04338275040812050000 ) ) ;
#2 =( LENGTH_UNIT ( ) NAMED_UNIT ( * ) SI_UNIT ( .MILLI., .METRE. ) );
#3 = PRODUCT_DEFINITION_SHAPE ( 'NONE', 'NONE',  #92 ) ;
#4 = DATE_AND_TIME ( #183, #60 ) ;
#5 = SECURITY_CLASSIFICATION_LEVEL ( 'unclassified' ) ;
#6 = ORIENTED_EDGE ( 'NONE', *, *, #219, .T. ) ;
#7 = PERSON_AND_ORGANIZATION_ROLE ( 'design_owner' ) ;
#8 = DESIGN_CONTEXT ( 'detailed design', #110, 'design' ) ;
#9 = CARTESIAN_POINT ( 'NONE',  ( -4.657293903630907100E-015, -8.881784197001250400E-016, 4.000000000000000000 ) ) ;
#10 = ORIENTED_EDGE ( 'NONE', *, *, #103, .F. ) ;
#11 = CARTESIAN_POINT ( 'NONE',  ( 19.16254662591349600, -19.27858619304786100, 0.2587303992341599100 ) ) ;
#12 = CARTESIAN_POINT ( 'NONE',  ( -19.05000000000000400, 1.444773732675583000E-015, 4.000000000000000000 ) ) ;
#13 = ORGANIZATION ( 'UNSPECIFIED', 'UNSPECIFIED', '' ) ;
#14 =( GEOMETRIC_REPRESENTATION_CONTEXT ( 3 ) GLOBAL_UNCERTAINTY_ASSIGNED_CONTEXT ( ( #33 ) ) GLOBAL_UNIT_ASSIGNED_CONTEXT ( ( #2, #18, #20 ) ) REPRESENTATION_CONTEXT ( 'NONE', 'WORKASPACE' ) );
#15 = EDGE_LOOP ( 'NONE', ( #156, #124 ) ) ;
#16 = CARTESIAN_POINT ( 'NONE',  ( -19.16254662591339300, -19.27858619304784700, 0.2587303992340750400 ) ) ;
#17 = CARTESIAN_POINT ( 'NONE',  ( -12.77536665393583300, 19.27858619304793600, 0.1730043390387676300 ) ) ;
#18 =( NAMED_UNIT ( * ) PLANE_ANGLE_UNIT ( ) SI_UNIT ( $, .RADIAN. ) );
#19 = CIRCLE ( 'NONE', #98, 1428.000000000000000 ) ;
#20 =( NAMED_UNIT ( * ) SI_UNIT ( $, .STERADIAN. ) SOLID_ANGLE_UNIT ( ) );
#21 = CARTESIAN_POINT ( 'NONE',  ( 19.16254662591351000, 19.27858619304792500, 0.2587303992341599100 ) ) ;
#22 = CC_DESIGN_PERSON_AND_ORGANIZATION_ASSIGNMENT ( #109, #131, ( #132 ) ) ;
#23 = APPROVAL_PERSON_ORGANIZATION ( #39, #211, #168 ) ;
#24 = DIRECTION ( 'NONE',  ( 1.000000000000000000, 0.0000000000000000000, 0.0000000000000000000 ) ) ;
#25 = ORIENTED_EDGE ( 'NONE', *, *, #120, .F. ) ;
#26 = ADVANCED_FACE ( 'NONE', ( #177 ), #190, .T. ) ;
#27 =( BOUNDED_SURFACE ( )  B_SPLINE_SURFACE ( 3, 3, ( 
 ( #16, #200, #41, #162 ),
 ( #220, #202, #123, #90 ),
 ( #139, #102, #180, #1 ),
 ( #40, #17, #44, #57 ) ),
 .UNSPECIFIED., .F., .F., .F. ) 
 B_SPLINE_SURFACE_WITH_KNOTS ( ( 4, 4 ),
 ( 4, 4 ),
 ( 0.0000000000000000000, 1.000000000000000000 ),
 ( 0.0000000000000000000, 1.000000000000000000 ),
 .UNSPECIFIED. ) 
 GEOMETRIC_REPRESENTATION_ITEM ( )  RATIONAL_B_SPLINE_SURFACE ( (
 ( 1.000000000000000000, 0.9999849902867454800, 0.9999849902867454800, 1.000000000000000000),
 ( 0.9999392435369389700, 0.9999242347356215300, 0.9999242347356215300, 0.9999392435369389700),
 ( 0.9999392435369389700, 0.9999242347356215300, 0.9999242347356215300, 0.9999392435369389700),
 ( 1.000000000000000000, 0.9999849902867454800, 0.9999849902867454800, 1.000000000000000000) ) ) 
 REPRESENTATION_ITEM ( '' )  SURFACE ( )  );
#28 = PERSON_AND_ORGANIZATION_ROLE ( 'creator' ) ;
#29 = EDGE_CURVE ( 'NONE', #95, #107, #30, .T. ) ;
#30 = CIRCLE ( 'NONE', #226, 19.05000000000000100 ) ;
#31 = PERSON_AND_ORGANIZATION ( #174, #13 ) ;
#32 = CC_DESIGN_PERSON_AND_ORGANIZATION_ASSIGNMENT ( #206, #208, ( #149 ) ) ;
#33 = UNCERTAINTY_MEASURE_WITH_UNIT (LENGTH_MEASURE( 1.000000000000000100E-005 ), #2, 'distance_accuracy_value', 'NONE');
#34 = DIRECTION ( 'NONE',  ( -1.456985596620939900E-018, -6.792982492034799900E-035, -1.000000000000000000 ) ) ;
#35 = PRODUCT_RELATED_PRODUCT_CATEGORY ( 'detail', '', ( #154 ) ) ;
#36 = CIRCLE ( 'NONE', #115, 19.05000000000000100 ) ;
#37 = CARTESIAN_POINT ( 'NONE',  ( 6.387755235747991200, -19.27858619304785700, 0.1301403438767018100 ) ) ;
#38 = CARTESIAN_POINT ( 'NONE',  ( -4.662936703425659800E-015, -8.881784197001250400E-016, 0.1270723555264500200 ) ) ;
#39 = PERSON_AND_ORGANIZATION ( #174, #13 ) ;
#40 = CARTESIAN_POINT ( 'NONE',  ( -19.16254662591337900, 19.27858619304793900, 0.2587303992340750400 ) ) ;
#41 = CARTESIAN_POINT ( 'NONE',  ( -6.387755235749360800, -19.27858619304785000, 0.1301403438766368700 ) ) ;
#42 = CARTESIAN_POINT ( 'NONE',  ( 19.16487537062537800, 6.426585854308730600, 0.08522293196481786600 ) ) ;
#43 = CALENDAR_DATE ( 2018, 13, 12 ) ;
#44 = CARTESIAN_POINT ( 'NONE',  ( -6.387755235749346600, 19.27858619304793600, 0.1301403438766367800 ) ) ;
#45 = APPROVAL_DATE_TIME ( #51, #117 ) ;
#46 = ORIENTED_EDGE ( 'NONE', *, *, #170, .T. ) ;
#47 = APPLICATION_CONTEXT ( 'configuration controlled 3d designs of mechanical parts and assemblies' ) ;
#48 = PERSON_AND_ORGANIZATION ( #174, #13 ) ;
#49 = COORDINATED_UNIVERSAL_TIME_OFFSET ( 2, 0, .AHEAD. ) ;
#50 = EDGE_CURVE ( 'NONE', #169, #128, #19, .T. ) ;
#51 = DATE_AND_TIME ( #43, #94 ) ;
#52 = DIRECTION ( 'NONE',  ( 1.000000000000000000, 0.0000000000000000000, -1.422837496700137100E-018 ) ) ;
#53 = CARTESIAN_POINT ( 'NONE',  ( -8.738169824134728300E-013, -6.426585854308656900, -0.04338275040804539400 ) ) ;
#54 = AXIS2_PLACEMENT_3D ( 'NONE', #235, #181, #184 ) ;
#55 = DIRECTION ( 'NONE',  ( 1.456985596620939900E-018, 6.792982492034799900E-035, 1.000000000000000000 ) ) ;
#56 = ORIENTED_EDGE ( 'NONE', *, *, #106, .F. ) ;
#57 = CARTESIAN_POINT ( 'NONE',  ( -1.214306433183765000E-012, 19.27858619304793200, 0.1301403438766313100 ) ) ;
#58 = CIRCLE ( 'NONE', #144, 19.05000000000000100 ) ;
#59 = CARTESIAN_POINT ( 'NONE',  ( 6.387755235748002700, 19.27858619304792900, 0.1301403438767018100 ) ) ;
#60 = LOCAL_TIME ( 17, 4, 2.000000000000000000, #151 ) ;
#61 = FACE_OUTER_BOUND ( 'NONE', #179, .T. ) ;
#62 = APPLICATION_PROTOCOL_DEFINITION ( 'international standard', 'config_control_design', 1994, #47 ) ;
#63 = AXIS2_PLACEMENT_3D ( 'NONE', #204, #145, #108 ) ;
#64 = ORIENTED_EDGE ( 'NONE', *, *, #103, .T. ) ;
#65 = LOCAL_TIME ( 17, 4, 2.000000000000000000, #49 ) ;
#66 = EDGE_LOOP ( 'NONE', ( #6, #229, #140 ) ) ;
#67 = LINE ( 'NONE', #198, #79 ) ;
#68 = CARTESIAN_POINT ( 'NONE',  ( -8.778954932711945500E-013, -19.27858619304785400, 0.1301403438767057000 ) ) ;
#69 = CARTESIAN_POINT ( 'NONE',  ( 12.77691919119022900, 6.426585854308731500, -0.0005135461625862397500 ) ) ;
#70 = DIRECTION ( 'NONE',  ( -1.456985596620939900E-018, -6.792982492034799900E-035, -1.000000000000000000 ) ) ;
#71 = CC_DESIGN_APPROVAL ( #117, ( #132 ) ) ;
#72 = CARTESIAN_POINT ( 'NONE',  ( -8.778229415424999800E-013, -19.05000000000052700, 0.1270723555263377200 ) ) ;
#73 = ORIENTED_EDGE ( 'NONE', *, *, #173, .T. ) ;
#74 = DIRECTION ( 'NONE',  ( 1.000000000000000000, 0.0000000000000000000, -0.0000000000000000000 ) ) ;
#75 = APPROVAL_STATUS ( 'not_yet_approved' ) ;
#76 = APPROVAL_STATUS ( 'not_yet_approved' ) ;
#77 = CIRCLE ( 'NONE', #54, 19.05000000000000100 ) ;
#78 = AXIS2_PLACEMENT_3D ( 'NONE', #138, #157, #52 ) ;
#79 = VECTOR ( 'NONE', #217, 1000.000000000000000 ) ;
#80 = APPROVAL_DATE_TIME ( #4, #112 ) ;
#81 = CC_DESIGN_APPROVAL ( #112, ( #149 ) ) ;
#82 = VERTEX_POINT ( 'NONE', #100 ) ;
#83 = DIRECTION ( 'NONE',  ( 1.000000000000000000, 0.0000000000000000000, 0.0000000000000000000 ) ) ;
#84 = DIRECTION ( 'NONE',  ( 1.000000000000000000, 0.0000000000000000000, -1.422837496700137100E-018 ) ) ;
#85 = DIRECTION ( 'NONE',  ( -1.456985596620939900E-018, -6.792982492034799900E-035, -1.000000000000000000 ) ) ;
#86 = AXIS2_PLACEMENT_3D ( 'NONE', #125, #105, #24 ) ;
#87 =( BOUNDED_SURFACE ( )  B_SPLINE_SURFACE ( 3, 3, ( 
 ( #68, #37, #234, #11 ),
 ( #53, #232, #159, #121 ),
 ( #160, #178, #69, #42 ),
 ( #222, #59, #164, #21 ) ),
 .UNSPECIFIED., .F., .F., .F. ) 
 B_SPLINE_SURFACE_WITH_KNOTS ( ( 4, 4 ),
 ( 4, 4 ),
 ( 0.0000000000000000000, 1.000000000000000000 ),
 ( 0.0000000000000000000, 1.000000000000000000 ),
 .UNSPECIFIED. ) 
 GEOMETRIC_REPRESENTATION_ITEM ( )  RATIONAL_B_SPLINE_SURFACE ( (
 ( 1.000000000000000000, 0.9999849902867454800, 0.9999849902867454800, 1.000000000000000000),
 ( 0.9999392435369389700, 0.9999242347356215300, 0.9999242347356215300, 0.9999392435369389700),
 ( 0.9999392435369389700, 0.9999242347356215300, 0.9999242347356215300, 0.9999392435369389700),
 ( 1.000000000000000000, 0.9999849902867454800, 0.9999849902867454800, 1.000000000000000000) ) ) 
 REPRESENTATION_ITEM ( '' )  SURFACE ( )  );
#88 = DIRECTION ( 'NONE',  ( 1.000000000000000000, 0.0000000000000000000, 0.0000000000000000000 ) ) ;
#89 = LOCAL_TIME ( 17, 4, 2.000000000000000000, #99 ) ;
#90 = CARTESIAN_POINT ( 'NONE',  ( -1.221245327087672200E-012, -6.426585854308656000, -0.04338275040811973700 ) ) ;
#91 = ORIENTED_EDGE ( 'NONE', *, *, #170, .F. ) ;
#92 = PRODUCT_DEFINITION ( 'UNKNOWN', '', #132, #8 ) ;
#93 = ADVANCED_BREP_SHAPE_REPRESENTATION ( '110-1465E UVFS pl-cx 38.1 F3000', ( #215, #86 ), #14 ) ;
#94 = LOCAL_TIME ( 17, 4, 2.000000000000000000, #197 ) ;
#95 = VERTEX_POINT ( 'NONE', #12 ) ;
#96 = CARTESIAN_POINT ( 'NONE',  ( -4.662936703425659800E-015, -8.881784197001250400E-016, 0.1270723555264499900 ) ) ;
#97 = CIRCLE ( 'NONE', #141, 19.05000000000000100 ) ;
#98 = AXIS2_PLACEMENT_3D ( 'NONE', #119, #194, #218 ) ;
#99 = COORDINATED_UNIVERSAL_TIME_OFFSET ( 2, 0, .AHEAD. ) ;
#100 = CARTESIAN_POINT ( 'NONE',  ( -19.05000000000000400, 1.444773732675583000E-015, 0.1270723555264500500 ) ) ;
#101 = EDGE_LOOP ( 'NONE', ( #116, #213, #134, #10, #25 ) ) ;
#102 = CARTESIAN_POINT ( 'NONE',  ( -12.77691919119084200, 6.426585854308741300, -0.0005135461626607651000 ) ) ;
#103 = EDGE_CURVE ( 'NONE', #193, #107, #67, .T. ) ;
#104 = DIRECTION ( 'NONE',  ( 1.000000000000000000, 0.0000000000000000000, -1.422837496700137100E-018 ) ) ;
#105 = DIRECTION ( 'NONE',  ( 0.0000000000000000000, 0.0000000000000000000, 1.000000000000000000 ) ) ;
#106 = EDGE_CURVE ( 'NONE', #82, #95, #210, .T. ) ;
#107 = VERTEX_POINT ( 'NONE', #136 ) ;
#108 = DIRECTION ( 'NONE',  ( 1.000000000000000000, 0.0000000000000000000, -1.422837496700137100E-018 ) ) ;
#109 = PERSON_AND_ORGANIZATION ( #174, #13 ) ;
#110 = APPLICATION_CONTEXT ( 'configuration controlled 3d designs of mechanical parts and assemblies' ) ;
#111 = DATE_TIME_ROLE ( 'creation_date' ) ;
#112 = APPROVAL ( #75, 'UNSPECIFIED' ) ;
#113 = FACE_OUTER_BOUND ( 'NONE', #66, .T. ) ;
#114 = ORIENTED_EDGE ( 'NONE', *, *, #50, .F. ) ;
#115 = AXIS2_PLACEMENT_3D ( 'NONE', #38, #85, #84 ) ;
#116 = ORIENTED_EDGE ( 'NONE', *, *, #173, .F. ) ;
#117 = APPROVAL ( #130, 'UNSPECIFIED' ) ;
#118 = ORIENTED_EDGE ( 'NONE', *, *, #185, .T. ) ;
#119 = CARTESIAN_POINT ( 'NONE',  ( 0.0000000000000000000, 0.0000000000000000000, 1428.000000000000000 ) ) ;
#120 = EDGE_CURVE ( 'NONE', #128, #193, #36, .T. ) ;
#121 = CARTESIAN_POINT ( 'NONE',  ( 19.16487537062537100, -6.426585854308663100, 0.08522293196481857400 ) ) ;
#122 = CYLINDRICAL_SURFACE ( 'NONE', #133, 19.05000000000000100 ) ;
#123 = CARTESIAN_POINT ( 'NONE',  ( -6.388531513115629500, -6.426585854308654300, -0.04338275040811428300 ) ) ;
#124 = ORIENTED_EDGE ( 'NONE', *, *, #29, .F. ) ;
#125 = CARTESIAN_POINT ( 'NONE',  ( 0.0000000000000000000, 0.0000000000000000000, 0.0000000000000000000 ) ) ;
#126 = PLANE ( 'NONE',  #166 ) ;
#127 = CARTESIAN_POINT ( 'NONE',  ( -4.657293903630907100E-015, -8.881784197001250400E-016, 4.000000000000000000 ) ) ;
#128 = VERTEX_POINT ( 'NONE', #175 ) ;
#129 = PERSON_AND_ORGANIZATION ( #174, #13 ) ;
#130 = APPROVAL_STATUS ( 'not_yet_approved' ) ;
#131 = PERSON_AND_ORGANIZATION_ROLE ( 'creator' ) ;
#132 = PRODUCT_DEFINITION_FORMATION_WITH_SPECIFIED_SOURCE ( 'ANY', '', #154, .NOT_KNOWN. ) ;
#133 = AXIS2_PLACEMENT_3D ( 'NONE', #96, #161, #214 ) ;
#134 = ORIENTED_EDGE ( 'NONE', *, *, #29, .T. ) ;
#135 = LOCAL_TIME ( 17, 4, 2.000000000000000000, #172 ) ;
#136 = CARTESIAN_POINT ( 'NONE',  ( 19.04999999999999700, -8.881784197001250400E-016, 4.000000000000000000 ) ) ;
#137 = CC_DESIGN_APPROVAL ( #211, ( #92 ) ) ;
#138 = CARTESIAN_POINT ( 'NONE',  ( -4.662936703425659800E-015, -8.881784197001250400E-016, 0.1270723555264499900 ) ) ;
#139 = CARTESIAN_POINT ( 'NONE',  ( -19.16487537062525300, 6.426585854308744000, 0.08522293196473290600 ) ) ;
#140 = ORIENTED_EDGE ( 'NONE', *, *, #120, .T. ) ;
#141 = AXIS2_PLACEMENT_3D ( 'NONE', #163, #201, #104 ) ;
#142 = PERSON_AND_ORGANIZATION ( #174, #13 ) ;
#143 = CARTESIAN_POINT ( 'NONE',  ( 0.0000000000000000000, 39.06600000000000300, 4.000000000000000000 ) ) ;
#144 = AXIS2_PLACEMENT_3D ( 'NONE', #127, #70, #88 ) ;
#145 = DIRECTION ( 'NONE',  ( -1.456985596620939900E-018, -6.792982492034799900E-035, -1.000000000000000000 ) ) ;
#146 = ADVANCED_FACE ( 'NONE', ( #224 ), #122, .T. ) ;
#147 = PERSON_AND_ORGANIZATION ( #174, #13 ) ;
#148 = ADVANCED_FACE ( 'NONE', ( #113 ), #87, .T. ) ;
#149 = SECURITY_CLASSIFICATION ( '', '', #5 ) ;
#150 = ORIENTED_EDGE ( 'NONE', *, *, #219, .F. ) ;
#151 = COORDINATED_UNIVERSAL_TIME_OFFSET ( 2, 0, .AHEAD. ) ;
#152 = CC_DESIGN_DATE_AND_TIME_ASSIGNMENT ( #192, #111, ( #92 ) ) ;
#153 = CC_DESIGN_PERSON_AND_ORGANIZATION_ASSIGNMENT ( #147, #188, ( #132 ) ) ;
#154 = PRODUCT ( '110-1465E UVFS pl-cx 38.1 F3000', '110-1465E UVFS pl-cx 38.1 F3000', '', ( #189 ) ) ;
#155 = CARTESIAN_POINT ( 'NONE',  ( 19.04999999999999700, -8.881784197001250400E-016, 0.1270723555264499900 ) ) ;
#156 = ORIENTED_EDGE ( 'NONE', *, *, #185, .F. ) ;
#157 = DIRECTION ( 'NONE',  ( 1.456985596620939900E-018, 6.792982492034799900E-035, 1.000000000000000000 ) ) ;
#158 = DATE_AND_TIME ( #187, #135 ) ;
#159 = CARTESIAN_POINT ( 'NONE',  ( 12.77691919119022200, -6.426585854308660500, -0.0005135461625855349100 ) ) ;
#160 = CARTESIAN_POINT ( 'NONE',  ( -8.696321659789685200E-013, 6.426585854308736900, -0.04338275040804609500 ) ) ;
#161 = DIRECTION ( 'NONE',  ( 1.456985596620939900E-018, 6.792982492034799900E-035, 1.000000000000000000 ) ) ;
#162 = CARTESIAN_POINT ( 'NONE',  ( -1.228184220991579400E-012, -19.27858619304785400, 0.1301403438766313700 ) ) ;
#163 = CARTESIAN_POINT ( 'NONE',  ( -4.662936703425659800E-015, -8.881784197001250400E-016, 0.1270723555264500200 ) ) ;
#164 = CARTESIAN_POINT ( 'NONE',  ( 12.77536665393522800, 19.27858619304792900, 0.1730043390388421000 ) ) ;
#165 = FACE_OUTER_BOUND ( 'NONE', #15, .T. ) ;
#166 = AXIS2_PLACEMENT_3D ( 'NONE', #143, #221, #74 ) ;
#167 = DATE_AND_TIME ( #171, #65 ) ;
#168 = APPROVAL_ROLE ( '' ) ;
#169 = VERTEX_POINT ( 'NONE', #72 ) ;
#170 = EDGE_CURVE ( 'NONE', #169, #82, #199, .T. ) ;
#171 = CALENDAR_DATE ( 2018, 13, 12 ) ;
#172 = COORDINATED_UNIVERSAL_TIME_OFFSET ( 2, 0, .AHEAD. ) ;
#173 = EDGE_CURVE ( 'NONE', #82, #128, #77, .T. ) ;
#174 = PERSON ( 'UNSPECIFIED', 'UNSPECIFIED', 'UNSPECIFIED', ('UNSPECIFIED'), ('UNSPECIFIED'), ('UNSPECIFIED') ) ;
#175 = CARTESIAN_POINT ( 'NONE',  ( -8.654181040619798300E-013, 19.05000000000052700, 0.1270723555263377200 ) ) ;
#176 = CC_DESIGN_SECURITY_CLASSIFICATION ( #149, ( #132 ) ) ;
#177 = FACE_OUTER_BOUND ( 'NONE', #203, .T. ) ;
#178 = CARTESIAN_POINT ( 'NONE',  ( 6.388531513114277700, 6.426585854308734200, -0.04338275040805000100 ) ) ;
#179 = EDGE_LOOP ( 'NONE', ( #114, #46, #73 ) ) ;
#180 = CARTESIAN_POINT ( 'NONE',  ( -6.388531513115623300, 6.426585854308738600, -0.04338275040811505300 ) ) ;
#181 = DIRECTION ( 'NONE',  ( -1.456985596620939900E-018, -6.792982492034799900E-035, -1.000000000000000000 ) ) ;
#182 = ADVANCED_FACE ( 'NONE', ( #61 ), #27, .T. ) ;
#183 = CALENDAR_DATE ( 2018, 13, 12 ) ;
#184 = DIRECTION ( 'NONE',  ( 1.000000000000000000, 0.0000000000000000000, -1.422837496700137100E-018 ) ) ;
#185 = EDGE_CURVE ( 'NONE', #107, #95, #58, .T. ) ;
#186 = ADVANCED_FACE ( 'NONE', ( #165 ), #126, .T. ) ;
#187 = CALENDAR_DATE ( 2018, 13, 12 ) ;
#188 = PERSON_AND_ORGANIZATION_ROLE ( 'design_supplier' ) ;
#189 = MECHANICAL_CONTEXT ( 'NONE', #47, 'mechanical' ) ;
#190 = CYLINDRICAL_SURFACE ( 'NONE', #78, 19.05000000000000100 ) ;
#191 = SHAPE_DEFINITION_REPRESENTATION ( #3, #93 ) ;
#192 = DATE_AND_TIME ( #233, #89 ) ;
#193 = VERTEX_POINT ( 'NONE', #155 ) ;
#194 = DIRECTION ( 'NONE',  ( 1.000000000000000000, -3.255862855779499800E-016, -6.104328374935509900E-016 ) ) ;
#195 = CC_DESIGN_PERSON_AND_ORGANIZATION_ASSIGNMENT ( #142, #7, ( #154 ) ) ;
#196 = CARTESIAN_POINT ( 'NONE',  ( -19.05000000000000400, 1.444773732675583000E-015, 0.1270723555264500200 ) ) ;
#197 = COORDINATED_UNIVERSAL_TIME_OFFSET ( 2, 0, .AHEAD. ) ;
#198 = CARTESIAN_POINT ( 'NONE',  ( 19.04999999999999700, -8.881784197001250400E-016, 0.1270723555264499600 ) ) ;
#199 = CIRCLE ( 'NONE', #63, 19.05000000000000100 ) ;
#200 = CARTESIAN_POINT ( 'NONE',  ( -12.77536665393584800, -19.27858619304785000, 0.1730043390387676300 ) ) ;
#201 = DIRECTION ( 'NONE',  ( -1.456985596620939900E-018, -6.792982492034799900E-035, -1.000000000000000000 ) ) ;
#202 = CARTESIAN_POINT ( 'NONE',  ( -12.77691919119084900, -6.426585854308651600, -0.0005135461626600603700 ) ) ;
#203 = EDGE_LOOP ( 'NONE', ( #56, #91, #150, #64, #118 ) ) ;
#204 = CARTESIAN_POINT ( 'NONE',  ( -4.662936703425659800E-015, -8.881784197001250400E-016, 0.1270723555264500200 ) ) ;
#205 = APPROVAL_ROLE ( '' ) ;
#206 = PERSON_AND_ORGANIZATION ( #174, #13 ) ;
#207 = DATE_TIME_ROLE ( 'classification_date' ) ;
#208 = PERSON_AND_ORGANIZATION_ROLE ( 'classification_officer' ) ;
#209 = APPROVAL_ROLE ( '' ) ;
#210 = LINE ( 'NONE', #196, #212 ) ;
#211 = APPROVAL ( #76, 'UNSPECIFIED' ) ;
#212 = VECTOR ( 'NONE', #55, 1000.000000000000000 ) ;
#213 = ORIENTED_EDGE ( 'NONE', *, *, #106, .T. ) ;
#214 = DIRECTION ( 'NONE',  ( 1.000000000000000000, 0.0000000000000000000, -1.422837496700137100E-018 ) ) ;
#215 = MANIFOLD_SOLID_BREP ( 'Imported1', #227 ) ;
#216 = APPROVAL_PERSON_ORGANIZATION ( #48, #112, #205 ) ;
#217 = DIRECTION ( 'NONE',  ( 1.456985596620939900E-018, 6.792982492034799900E-035, 1.000000000000000000 ) ) ;
#218 = DIRECTION ( 'NONE',  ( -3.255862855779501300E-016, -1.000000000000000000, -3.109868416316964900E-016 ) ) ;
#219 = EDGE_CURVE ( 'NONE', #193, #169, #97, .T. ) ;
#220 = CARTESIAN_POINT ( 'NONE',  ( -19.16487537062526100, -6.426585854308649800, 0.08522293196473361400 ) ) ;
#221 = DIRECTION ( 'NONE',  ( 0.0000000000000000000, 0.0000000000000000000, 1.000000000000000000 ) ) ;
#222 = CARTESIAN_POINT ( 'NONE',  ( -8.653418067316168800E-013, 19.27858619304793200, 0.1301403438767057000 ) ) ;
#223 = CC_DESIGN_PERSON_AND_ORGANIZATION_ASSIGNMENT ( #31, #28, ( #92 ) ) ;
#224 = FACE_OUTER_BOUND ( 'NONE', #101, .T. ) ;
#225 = APPLICATION_PROTOCOL_DEFINITION ( 'international standard', 'config_control_design', 1994, #110 ) ;
#226 = AXIS2_PLACEMENT_3D ( 'NONE', #9, #34, #83 ) ;
#227 = CLOSED_SHELL ( 'NONE', ( #148, #146, #182, #26, #186 ) ) ;
#228 = APPROVAL_PERSON_ORGANIZATION ( #129, #117, #209 ) ;
#229 = ORIENTED_EDGE ( 'NONE', *, *, #50, .T. ) ;
#230 = APPROVAL_DATE_TIME ( #167, #211 ) ;
#231 = CC_DESIGN_DATE_AND_TIME_ASSIGNMENT ( #158, #207, ( #149 ) ) ;
#232 = CARTESIAN_POINT ( 'NONE',  ( 6.388531513114274100, -6.426585854308657800, -0.04338275040804929300 ) ) ;
#233 = CALENDAR_DATE ( 2018, 13, 12 ) ;
#234 = CARTESIAN_POINT ( 'NONE',  ( 12.77536665393521500, -19.27858619304785700, 0.1730043390388421000 ) ) ;
#235 = CARTESIAN_POINT ( 'NONE',  ( -4.662936703425659800E-015, -8.881784197001250400E-016, 0.1270723555264500200 ) ) ;
ENDSEC;
END-ISO-10303-21;
