ISO-10303-21;
HEADER;
FILE_DESCRIPTION (( 'STEP AP203' ),
    '1' );
FILE_NAME ('110-1455E UVFS pl-cx 38.1 F1500.STEP',
    '2018-12-13T15:04:13',
    ( '' ),
    ( '' ),
    'SwSTEP 2.0',
    'SolidWorks 2017',
    '' );
FILE_SCHEMA (( 'CONFIG_CONTROL_DESIGN' ));
ENDSEC;

DATA;
#1 = APPROVAL ( #178, 'UNSPECIFIED' ) ;
#2 = CARTESIAN_POINT ( 'NONE',  ( -2.402075634698320600E-014, 19.27854477589928500, 0.2602786960341774100 ) ) ;
#3 = APPROVAL_DATE_TIME ( #213, #1 ) ;
#4 = VECTOR ( 'NONE', #205, 1000.000000000000000 ) ;
#5 = CARTESIAN_POINT ( 'NONE',  ( -12.77286688850841000, 19.27854477589929200, 0.3459864996159549600 ) ) ;
#6 = DESIGN_CONTEXT ( 'detailed design', #47, 'design' ) ;
#7 = DIRECTION ( 'NONE',  ( 0.0000000000000000000, 0.0000000000000000000, 1.000000000000000000 ) ) ;
#8 = ORIENTED_EDGE ( 'NONE', *, *, #156, .T. ) ;
#9 = CARTESIAN_POINT ( 'NONE',  ( -19.05000000000000400, 1.444773732675583000E-015, 0.2541430392692949900 ) ) ;
#10 = APPROVAL ( #37, 'UNSPECIFIED' ) ;
#11 = SHAPE_DEFINITION_REPRESENTATION ( #28, #202 ) ;
#12 = CARTESIAN_POINT ( 'NONE',  ( -4.662936703425659800E-015, -8.881784197001250400E-016, 4.000000000000000000 ) ) ;
#13 = FACE_OUTER_BOUND ( 'NONE', #74, .T. ) ;
#14 = AXIS2_PLACEMENT_3D ( 'NONE', #63, #217, #230 ) ;
#15 = MECHANICAL_CONTEXT ( 'NONE', #215, 'mechanical' ) ;
#16 = PERSON_AND_ORGANIZATION ( #84, #73 ) ;
#17 = ORIENTED_EDGE ( 'NONE', *, *, #105, .F. ) ;
#18 = PERSON_AND_ORGANIZATION_ROLE ( 'creator' ) ;
#19 = CC_DESIGN_APPROVAL ( #10, ( #159 ) ) ;
#20 = PERSON_AND_ORGANIZATION ( #84, #73 ) ;
#21 = PERSON_AND_ORGANIZATION ( #84, #73 ) ;
#22 = CLOSED_SHELL ( 'NONE', ( #23, #108, #112, #184, #169 ) ) ;
#23 = ADVANCED_FACE ( 'NONE', ( #69 ), #138, .T. ) ;
#24 = PRODUCT_RELATED_PRODUCT_CATEGORY ( 'detail', '', ( #150 ) ) ;
#25 = CARTESIAN_POINT ( 'NONE',  ( 19.04999999999999700, -8.881784197001250400E-016, 4.000000000000000000 ) ) ;
#26 = CARTESIAN_POINT ( 'NONE',  ( -1.942890293094023900E-013, 19.27854477589928500, 0.2602786960342123900 ) ) ;
#27 = APPROVAL_PERSON_ORGANIZATION ( #36, #1, #104 ) ;
#28 = PRODUCT_DEFINITION_SHAPE ( 'NONE', 'NONE',  #181 ) ;
#29 = CARTESIAN_POINT ( 'NONE',  ( -4.662936703425659800E-015, -8.881784197001250400E-016, 0.2541430392692949900 ) ) ;
#30 = APPROVAL_PERSON_ORGANIZATION ( #16, #70, #102 ) ;
#31 = EDGE_CURVE ( 'NONE', #201, #54, #149, .T. ) ;
#32 = DIRECTION ( 'NONE',  ( 1.000000000000000000, 0.0000000000000000000, 0.0000000000000000000 ) ) ;
#33 = CC_DESIGN_PERSON_AND_ORGANIZATION_ASSIGNMENT ( #164, #196, ( #159 ) ) ;
#34 = LOCAL_TIME ( 17, 4, 13.00000000000000000, #114 ) ;
#35 = ORIENTED_EDGE ( 'NONE', *, *, #117, .T. ) ;
#36 = PERSON_AND_ORGANIZATION ( #84, #73 ) ;
#37 = APPROVAL_STATUS ( 'not_yet_approved' ) ;
#38 = CIRCLE ( 'NONE', #119, 714.1000000000000200 ) ;
#39 = CARTESIAN_POINT ( 'NONE',  ( -3.657265794743784800E-014, -19.27854477589910300, 0.2602786960341774100 ) ) ;
#40 = AXIS2_PLACEMENT_3D ( 'NONE', #189, #75, #157 ) ;
#41 = VECTOR ( 'NONE', #99, 1000.000000000000000 ) ;
#42 = CARTESIAN_POINT ( 'NONE',  ( -6.389826138734935800, 6.427743469097220200, -0.08678065217186639600 ) ) ;
#43 = ORIENTED_EDGE ( 'NONE', *, *, #31, .T. ) ;
#44 = DIRECTION ( 'NONE',  ( 1.000000000000000000, 0.0000000000000000000, -0.0000000000000000000 ) ) ;
#45 = ORIENTED_EDGE ( 'NONE', *, *, #200, .T. ) ;
#46 = PLANE ( 'NONE',  #179 ) ;
#47 = APPLICATION_CONTEXT ( 'configuration controlled 3d designs of mechanical parts and assemblies' ) ;
#48 = DATE_TIME_ROLE ( 'classification_date' ) ;
#49 = AXIS2_PLACEMENT_3D ( 'NONE', #100, #176, #80 ) ;
#50 =( BOUNDED_SURFACE ( )  B_SPLINE_SURFACE ( 3, 3, ( 
 ( #226, #118, #210, #228 ),
 ( #93, #120, #152, #140 ),
 ( #186, #59, #42, #91 ),
 ( #94, #5, #137, #26 ) ),
 .UNSPECIFIED., .F., .F., .T. ) 
 B_SPLINE_SURFACE_WITH_KNOTS ( ( 4, 4 ),
 ( 4, 4 ),
 ( 0.0000000000000000000, 1.000000000000000000 ),
 ( 0.0000000000000000000, 1.000000000000000000 ),
 .UNSPECIFIED. ) 
 GEOMETRIC_REPRESENTATION_ITEM ( )  RATIONAL_B_SPLINE_SURFACE ( (
 ( 1.000000000000000000, 0.9999399679545265500, 0.9999399679545265500, 1.000000000000000000),
 ( 0.9997570100396450100, 0.9996969925813559100, 0.9996969925813559100, 0.9997570100396450100),
 ( 0.9997570100396450100, 0.9996969925813559100, 0.9996969925813559100, 0.9997570100396450100),
 ( 1.000000000000000000, 0.9999399679545265500, 0.9999399679545265500, 1.000000000000000000) ) ) 
 REPRESENTATION_ITEM ( '' )  SURFACE ( )  );
#51 = FACE_OUTER_BOUND ( 'NONE', #66, .T. ) ;
#52 = EDGE_CURVE ( 'NONE', #54, #60, #207, .T. ) ;
#53 = APPROVAL_PERSON_ORGANIZATION ( #163, #10, #231 ) ;
#54 = VERTEX_POINT ( 'NONE', #55 ) ;
#55 = CARTESIAN_POINT ( 'NONE',  ( -19.05000000000000400, 1.444773732675583000E-015, 0.2541430392692949900 ) ) ;
#56 = ORIENTED_EDGE ( 'NONE', *, *, #117, .F. ) ;
#57 = CARTESIAN_POINT ( 'NONE',  ( 6.389826138734711900, -6.427743469097038100, -0.08678065217191155400 ) ) ;
#58 = DIRECTION ( 'NONE',  ( 1.000000000000000000, 0.0000000000000000000, 0.0000000000000000000 ) ) ;
#59 = CARTESIAN_POINT ( 'NONE',  ( -12.77907688596967400, 6.427743469097222800, -0.001031178599568345900 ) ) ;
#60 = VERTEX_POINT ( 'NONE', #134 ) ;
#61 = CARTESIAN_POINT ( 'NONE',  ( 1.705302565824239900E-013, 2.273736754432320100E-013, 714.1000000000000200 ) ) ;
#62 = COORDINATED_UNIVERSAL_TIME_OFFSET ( 2, 0, .AHEAD. ) ;
#63 = CARTESIAN_POINT ( 'NONE',  ( -4.662936703425659800E-015, -8.881784197001250400E-016, 4.000000000000000000 ) ) ;
#64 =( LENGTH_UNIT ( ) NAMED_UNIT ( * ) SI_UNIT ( .MILLI., .METRE. ) );
#65 = DIRECTION ( 'NONE',  ( 1.000000000000000000, 0.0000000000000000000, 0.0000000000000000000 ) ) ;
#66 = EDGE_LOOP ( 'NONE', ( #17, #43, #90 ) ) ;
#67 = DATE_TIME_ROLE ( 'creation_date' ) ;
#68 = DATE_AND_TIME ( #124, #34 ) ;
#69 = FACE_OUTER_BOUND ( 'NONE', #136, .T. ) ;
#70 = APPROVAL ( #83, 'UNSPECIFIED' ) ;
#71 = DATE_AND_TIME ( #128, #101 ) ;
#72 = CARTESIAN_POINT ( 'NONE',  ( -3.248683859211153300E-014, -6.427743469097037200, -0.08678065217190973600 ) ) ;
#73 = ORGANIZATION ( 'UNSPECIFIED', 'UNSPECIFIED', '' ) ;
#74 = EDGE_LOOP ( 'NONE', ( #193, #165, #182, #175, #8 ) ) ;
#75 = DIRECTION ( 'NONE',  ( -0.0000000000000000000, -0.0000000000000000000, -1.000000000000000000 ) ) ;
#76 = CARTESIAN_POINT ( 'NONE',  ( -4.662936703425659800E-015, -8.881784197001250400E-016, 0.2541430392692949900 ) ) ;
#77 = VERTEX_POINT ( 'NONE', #115 ) ;
#78 = DIRECTION ( 'NONE',  ( -0.0000000000000000000, -0.0000000000000000000, -1.000000000000000000 ) ) ;
#79 = EDGE_CURVE ( 'NONE', #77, #107, #227, .T. ) ;
#80 = DIRECTION ( 'NONE',  ( 1.000000000000000000, 8.881784197001252300E-016, 0.0000000000000000000 ) ) ;
#81 = VERTEX_POINT ( 'NONE', #208 ) ;
#82 = APPLICATION_PROTOCOL_DEFINITION ( 'international standard', 'config_control_design', 1994, #215 ) ;
#83 = APPROVAL_STATUS ( 'not_yet_approved' ) ;
#84 = PERSON ( 'UNSPECIFIED', 'UNSPECIFIED', 'UNSPECIFIED', ('UNSPECIFIED'), ('UNSPECIFIED'), ('UNSPECIFIED') ) ;
#85 = ORIENTED_EDGE ( 'NONE', *, *, #105, .T. ) ;
#86 = LINE ( 'NONE', #9, #41 ) ;
#87 = CARTESIAN_POINT ( 'NONE',  ( -2.830185448283716700E-014, 6.427743469097217500, -0.08678065217190469900 ) ) ;
#88 = CARTESIAN_POINT ( 'NONE',  ( 6.386721000198211800, -19.27854477589911000, 0.2602786960341756400 ) ) ;
#89 = CARTESIAN_POINT ( 'NONE',  ( 19.16660156233001900, -6.427743469097043400, 0.1704523253962138800 ) ) ;
#90 = ORIENTED_EDGE ( 'NONE', *, *, #52, .T. ) ;
#91 = CARTESIAN_POINT ( 'NONE',  ( -2.012279232133096700E-013, 6.427743469097218400, -0.08678065217186975400 ) ) ;
#92 = AXIS2_PLACEMENT_3D ( 'NONE', #12, #158, #32 ) ;
#93 = CARTESIAN_POINT ( 'NONE',  ( -19.16660156233023200, -6.427743469097031000, 0.1704523253961966500 ) ) ;
#94 = CARTESIAN_POINT ( 'NONE',  ( -19.15728754472901200, 19.27854477589929200, 0.5173866711352115300 ) ) ;
#95 = ORIENTED_EDGE ( 'NONE', *, *, #79, .F. ) ;
#96 = DIRECTION ( 'NONE',  ( 1.000000000000000000, 0.0000000000000000000, 0.0000000000000000000 ) ) ;
#97 = ORIENTED_EDGE ( 'NONE', *, *, #214, .T. ) ;
#98 = PERSON_AND_ORGANIZATION_ROLE ( 'design_owner' ) ;
#99 = DIRECTION ( 'NONE',  ( 0.0000000000000000000, 0.0000000000000000000, 1.000000000000000000 ) ) ;
#100 = CARTESIAN_POINT ( 'NONE',  ( -4.662936703425659800E-015, -8.881784197001250400E-016, 0.2541430392692949900 ) ) ;
#101 = LOCAL_TIME ( 17, 4, 13.00000000000000000, #155 ) ;
#102 = APPROVAL_ROLE ( '' ) ;
#103 = CIRCLE ( 'NONE', #187, 19.05000000000000100 ) ;
#104 = APPROVAL_ROLE ( '' ) ;
#105 = EDGE_CURVE ( 'NONE', #201, #60, #38, .T. ) ;
#106 = COORDINATED_UNIVERSAL_TIME_OFFSET ( 2, 0, .AHEAD. ) ;
#107 = VERTEX_POINT ( 'NONE', #25 ) ;
#108 = ADVANCED_FACE ( 'NONE', ( #131 ), #116, .T. ) ;
#109 = LOCAL_TIME ( 17, 4, 13.00000000000000000, #206 ) ;
#110 = CARTESIAN_POINT ( 'NONE',  ( 19.15728754472880600, -19.27854477589911000, 0.5173866711352287400 ) ) ;
#111 = CARTESIAN_POINT ( 'NONE',  ( 12.77286688850820400, 19.27854477589928500, 0.3459864996159769400 ) ) ;
#112 = ADVANCED_FACE ( 'NONE', ( #51 ), #50, .T. ) ;
#113 = AXIS2_PLACEMENT_3D ( 'NONE', #160, #125, #142 ) ;
#114 = COORDINATED_UNIVERSAL_TIME_OFFSET ( 2, 0, .AHEAD. ) ;
#115 = CARTESIAN_POINT ( 'NONE',  ( 19.04999999999999700, -8.881784197001250400E-016, 0.2541430392692949900 ) ) ;
#116 = CYLINDRICAL_SURFACE ( 'NONE', #225, 19.05000000000000100 ) ;
#117 = EDGE_CURVE ( 'NONE', #60, #77, #129, .T. ) ;
#118 = CARTESIAN_POINT ( 'NONE',  ( -12.77286688850842500, -19.27854477589910300, 0.3459864996159549600 ) ) ;
#119 = AXIS2_PLACEMENT_3D ( 'NONE', #61, #154, #188 ) ;
#120 = CARTESIAN_POINT ( 'NONE',  ( -12.77907688596968100, -6.427743469097031000, -0.001031178599573360400 ) ) ;
#121 = DIRECTION ( 'NONE',  ( 0.0000000000000000000, 0.0000000000000000000, 1.000000000000000000 ) ) ;
#122 = EDGE_CURVE ( 'NONE', #81, #107, #162, .T. ) ;
#123 = CARTESIAN_POINT ( 'NONE',  ( -3.649998348826643400E-014, -19.04999999999894900, 0.2541430392692947100 ) ) ;
#124 = CALENDAR_DATE ( 2018, 13, 12 ) ;
#125 = DIRECTION ( 'NONE',  ( 0.0000000000000000000, 0.0000000000000000000, 1.000000000000000000 ) ) ;
#126 = APPLICATION_PROTOCOL_DEFINITION ( 'international standard', 'config_control_design', 1994, #47 ) ;
#127 = CC_DESIGN_APPROVAL ( #70, ( #204 ) ) ;
#128 = CALENDAR_DATE ( 2018, 13, 12 ) ;
#129 = CIRCLE ( 'NONE', #49, 19.05000000000000100 ) ;
#130 = CARTESIAN_POINT ( 'NONE',  ( 12.77286688850819400, -19.27854477589911000, 0.3459864996159769400 ) ) ;
#131 = FACE_OUTER_BOUND ( 'NONE', #190, .T. ) ;
#132 = CARTESIAN_POINT ( 'NONE',  ( 19.15728754472881700, 19.27854477589927700, 0.5173866711352287400 ) ) ;
#133 = CC_DESIGN_PERSON_AND_ORGANIZATION_ASSIGNMENT ( #198, #98, ( #150 ) ) ;
#134 = CARTESIAN_POINT ( 'NONE',  ( -2.409688313664788900E-014, 19.04999999999918000, 0.2541430392692947100 ) ) ;
#135 = PERSON_AND_ORGANIZATION ( #84, #73 ) ;
#136 = EDGE_LOOP ( 'NONE', ( #45, #85, #35 ) ) ;
#137 = CARTESIAN_POINT ( 'NONE',  ( -6.386721000198433800, 19.27854477589929200, 0.2602786960342157700 ) ) ;
#138 =( BOUNDED_SURFACE ( )  B_SPLINE_SURFACE ( 3, 3, ( 
 ( #39, #88, #130, #110 ),
 ( #72, #57, #168, #89 ),
 ( #87, #183, #224, #166 ),
 ( #2, #222, #111, #132 ) ),
 .UNSPECIFIED., .F., .F., .F. ) 
 B_SPLINE_SURFACE_WITH_KNOTS ( ( 4, 4 ),
 ( 4, 4 ),
 ( 0.0000000000000000000, 1.000000000000000000 ),
 ( 0.0000000000000000000, 1.000000000000000000 ),
 .UNSPECIFIED. ) 
 GEOMETRIC_REPRESENTATION_ITEM ( )  RATIONAL_B_SPLINE_SURFACE ( (
 ( 1.000000000000000000, 0.9999399679545265500, 0.9999399679545265500, 1.000000000000000000),
 ( 0.9997570100396450100, 0.9996969925813559100, 0.9996969925813559100, 0.9997570100396450100),
 ( 0.9997570100396450100, 0.9996969925813559100, 0.9996969925813559100, 0.9997570100396450100),
 ( 1.000000000000000000, 0.9999399679545265500, 0.9999399679545265500, 1.000000000000000000) ) ) 
 REPRESENTATION_ITEM ( '' )  SURFACE ( )  );
#139 = APPROVAL_DATE_TIME ( #71, #70 ) ;
#140 = CARTESIAN_POINT ( 'NONE',  ( -2.081668171172169000E-013, -6.427743469097036300, -0.08678065217187475000 ) ) ;
#141 = ORIENTED_EDGE ( 'NONE', *, *, #52, .F. ) ;
#142 = DIRECTION ( 'NONE',  ( 1.000000000000000000, 0.0000000000000000000, 0.0000000000000000000 ) ) ;
#143 = CARTESIAN_POINT ( 'NONE',  ( 0.0000000000000000000, 0.0000000000000000000, 0.0000000000000000000 ) ) ;
#144 = CYLINDRICAL_SURFACE ( 'NONE', #113, 19.05000000000000100 ) ;
#145 = CC_DESIGN_DATE_AND_TIME_ASSIGNMENT ( #68, #48, ( #204 ) ) ;
#146 = ORIENTED_EDGE ( 'NONE', *, *, #122, .F. ) ;
#147 = CC_DESIGN_SECURITY_CLASSIFICATION ( #204, ( #159 ) ) ;
#148 = CALENDAR_DATE ( 2018, 13, 12 ) ;
#149 = CIRCLE ( 'NONE', #203, 19.05000000000000100 ) ;
#150 = PRODUCT ( '110-1455E UVFS pl-cx 38.1 F1500', '110-1455E UVFS pl-cx 38.1 F1500', '', ( #15 ) ) ;
#151 = FACE_OUTER_BOUND ( 'NONE', #232, .T. ) ;
#152 = CARTESIAN_POINT ( 'NONE',  ( -6.389826138734942000, -6.427743469097033600, -0.08678065217187135000 ) ) ;
#153 =( GEOMETRIC_REPRESENTATION_CONTEXT ( 3 ) GLOBAL_UNCERTAINTY_ASSIGNED_CONTEXT ( ( #209 ) ) GLOBAL_UNIT_ASSIGNED_CONTEXT ( ( #64, #172, #229 ) ) REPRESENTATION_CONTEXT ( 'NONE', 'WORKASPACE' ) );
#154 = DIRECTION ( 'NONE',  ( 1.000000000000000000, -3.255406916435470100E-016, -2.813334110390849800E-016 ) ) ;
#155 = COORDINATED_UNIVERSAL_TIME_OFFSET ( 2, 0, .AHEAD. ) ;
#156 = EDGE_CURVE ( 'NONE', #107, #81, #199, .T. ) ;
#157 = DIRECTION ( 'NONE',  ( 1.000000000000000000, 0.0000000000000000000, 0.0000000000000000000 ) ) ;
#158 = DIRECTION ( 'NONE',  ( -0.0000000000000000000, -0.0000000000000000000, -1.000000000000000000 ) ) ;
#159 = PRODUCT_DEFINITION_FORMATION_WITH_SPECIFIED_SOURCE ( 'ANY', '', #150, .NOT_KNOWN. ) ;
#160 = CARTESIAN_POINT ( 'NONE',  ( -4.662936703425659800E-015, -8.881784197001250400E-016, 0.2541430392692949900 ) ) ;
#161 = SECURITY_CLASSIFICATION_LEVEL ( 'unclassified' ) ;
#162 = CIRCLE ( 'NONE', #14, 19.05000000000000100 ) ;
#163 = PERSON_AND_ORGANIZATION ( #84, #73 ) ;
#164 = PERSON_AND_ORGANIZATION ( #84, #73 ) ;
#165 = ORIENTED_EDGE ( 'NONE', *, *, #31, .F. ) ;
#166 = CARTESIAN_POINT ( 'NONE',  ( 19.16660156233002300, 6.427743469097212200, 0.1704523253962189300 ) ) ;
#167 = LOCAL_TIME ( 17, 4, 13.00000000000000000, #106 ) ;
#168 = CARTESIAN_POINT ( 'NONE',  ( 12.77907688596945900, -6.427743469097040800, -0.001031178599551378200 ) ) ;
#169 = ADVANCED_FACE ( 'NONE', ( #151 ), #46, .T. ) ;
#170 = CARTESIAN_POINT ( 'NONE',  ( 19.04999999999999700, -8.881784197001250400E-016, 0.2541430392692949900 ) ) ;
#171 = DATE_AND_TIME ( #148, #109 ) ;
#172 =( NAMED_UNIT ( * ) PLANE_ANGLE_UNIT ( ) SI_UNIT ( $, .RADIAN. ) );
#173 = DIRECTION ( 'NONE',  ( 0.0000000000000000000, 0.0000000000000000000, 1.000000000000000000 ) ) ;
#174 = CALENDAR_DATE ( 2018, 13, 12 ) ;
#175 = ORIENTED_EDGE ( 'NONE', *, *, #79, .T. ) ;
#176 = DIRECTION ( 'NONE',  ( -0.0000000000000000000, -0.0000000000000000000, -1.000000000000000000 ) ) ;
#177 = CC_DESIGN_PERSON_AND_ORGANIZATION_ASSIGNMENT ( #20, #180, ( #204 ) ) ;
#178 = APPROVAL_STATUS ( 'not_yet_approved' ) ;
#179 = AXIS2_PLACEMENT_3D ( 'NONE', #211, #121, #44 ) ;
#180 = PERSON_AND_ORGANIZATION_ROLE ( 'classification_officer' ) ;
#181 = PRODUCT_DEFINITION ( 'UNKNOWN', '', #159, #6 ) ;
#182 = ORIENTED_EDGE ( 'NONE', *, *, #200, .F. ) ;
#183 = CARTESIAN_POINT ( 'NONE',  ( 6.389826138734715500, 6.427743469097215700, -0.08678065217190651700 ) ) ;
#184 = ADVANCED_FACE ( 'NONE', ( #13 ), #144, .T. ) ;
#185 = APPROVAL_DATE_TIME ( #171, #10 ) ;
#186 = CARTESIAN_POINT ( 'NONE',  ( -19.16660156233022500, 6.427743469097224600, 0.1704523253962016400 ) ) ;
#187 = AXIS2_PLACEMENT_3D ( 'NONE', #29, #78, #65 ) ;
#188 = DIRECTION ( 'NONE',  ( -3.255406916435471100E-016, -1.000000000000000000, -3.109432921510030800E-016 ) ) ;
#189 = CARTESIAN_POINT ( 'NONE',  ( -4.662936703425659800E-015, -8.881784197001250400E-016, 0.2541430392692949900 ) ) ;
#190 = EDGE_LOOP ( 'NONE', ( #141, #97, #218, #95, #56 ) ) ;
#191 = DIRECTION ( 'NONE',  ( -0.0000000000000000000, -0.0000000000000000000, -1.000000000000000000 ) ) ;
#192 = DATE_AND_TIME ( #216, #223 ) ;
#193 = ORIENTED_EDGE ( 'NONE', *, *, #214, .F. ) ;
#194 = CC_DESIGN_DATE_AND_TIME_ASSIGNMENT ( #192, #67, ( #181 ) ) ;
#195 = DIRECTION ( 'NONE',  ( 1.000000000000000000, 0.0000000000000000000, 0.0000000000000000000 ) ) ;
#196 = PERSON_AND_ORGANIZATION_ROLE ( 'design_supplier' ) ;
#197 = ORIENTED_EDGE ( 'NONE', *, *, #156, .F. ) ;
#198 = PERSON_AND_ORGANIZATION ( #84, #73 ) ;
#199 = CIRCLE ( 'NONE', #92, 19.05000000000000100 ) ;
#200 = EDGE_CURVE ( 'NONE', #77, #201, #103, .T. ) ;
#201 = VERTEX_POINT ( 'NONE', #123 ) ;
#202 = ADVANCED_BREP_SHAPE_REPRESENTATION ( '110-1455E UVFS pl-cx 38.1 F1500', ( #220, #219 ), #153 ) ;
#203 = AXIS2_PLACEMENT_3D ( 'NONE', #221, #191, #58 ) ;
#204 = SECURITY_CLASSIFICATION ( '', '', #161 ) ;
#205 = DIRECTION ( 'NONE',  ( 0.0000000000000000000, 0.0000000000000000000, 1.000000000000000000 ) ) ;
#206 = COORDINATED_UNIVERSAL_TIME_OFFSET ( 2, 0, .AHEAD. ) ;
#207 = CIRCLE ( 'NONE', #40, 19.05000000000000100 ) ;
#208 = CARTESIAN_POINT ( 'NONE',  ( -19.05000000000000400, 1.444773732675583000E-015, 4.000000000000000000 ) ) ;
#209 = UNCERTAINTY_MEASURE_WITH_UNIT (LENGTH_MEASURE( 1.000000000000000100E-005 ), #64, 'distance_accuracy_value', 'NONE');
#210 = CARTESIAN_POINT ( 'NONE',  ( -6.386721000198447100, -19.27854477589910300, 0.2602786960342157700 ) ) ;
#211 = CARTESIAN_POINT ( 'NONE',  ( 0.0000000000000000000, 39.06600000000000300, 4.000000000000000000 ) ) ;
#212 = CC_DESIGN_PERSON_AND_ORGANIZATION_ASSIGNMENT ( #21, #18, ( #181 ) ) ;
#213 = DATE_AND_TIME ( #174, #167 ) ;
#214 = EDGE_CURVE ( 'NONE', #54, #81, #86, .T. ) ;
#215 = APPLICATION_CONTEXT ( 'configuration controlled 3d designs of mechanical parts and assemblies' ) ;
#216 = CALENDAR_DATE ( 2018, 13, 12 ) ;
#217 = DIRECTION ( 'NONE',  ( -0.0000000000000000000, -0.0000000000000000000, -1.000000000000000000 ) ) ;
#218 = ORIENTED_EDGE ( 'NONE', *, *, #122, .T. ) ;
#219 = AXIS2_PLACEMENT_3D ( 'NONE', #143, #173, #195 ) ;
#220 = MANIFOLD_SOLID_BREP ( 'Imported1', #22 ) ;
#221 = CARTESIAN_POINT ( 'NONE',  ( -4.662936703425659800E-015, -8.881784197001250400E-016, 0.2541430392692949900 ) ) ;
#222 = CARTESIAN_POINT ( 'NONE',  ( 6.386721000198224200, 19.27854477589928500, 0.2602786960341756400 ) ) ;
#223 = LOCAL_TIME ( 17, 4, 13.00000000000000000, #62 ) ;
#224 = CARTESIAN_POINT ( 'NONE',  ( 12.77907688596946300, 6.427743469097213100, -0.001031178599546336800 ) ) ;
#225 = AXIS2_PLACEMENT_3D ( 'NONE', #76, #7, #96 ) ;
#226 = CARTESIAN_POINT ( 'NONE',  ( -19.15728754472902700, -19.27854477589909600, 0.5173866711352115300 ) ) ;
#227 = LINE ( 'NONE', #170, #4 ) ;
#228 = CARTESIAN_POINT ( 'NONE',  ( -2.081668171172168500E-013, -19.27854477589910300, 0.2602786960342123900 ) ) ;
#229 =( NAMED_UNIT ( * ) SI_UNIT ( $, .STERADIAN. ) SOLID_ANGLE_UNIT ( ) );
#230 = DIRECTION ( 'NONE',  ( 1.000000000000000000, 0.0000000000000000000, 0.0000000000000000000 ) ) ;
#231 = APPROVAL_ROLE ( '' ) ;
#232 = EDGE_LOOP ( 'NONE', ( #197, #146 ) ) ;
#233 = CC_DESIGN_APPROVAL ( #1, ( #181 ) ) ;
#234 = PERSON_AND_ORGANIZATION_ROLE ( 'creator' ) ;
#235 = CC_DESIGN_PERSON_AND_ORGANIZATION_ASSIGNMENT ( #135, #234, ( #159 ) ) ;
ENDSEC;
END-ISO-10303-21;
