ISO-10303-21;
HEADER;
FILE_DESCRIPTION (( 'STEP AP203' ),
    '1' );
FILE_NAME ('110-1439E UVFS pl-cx 38.1 F600.STEP',
    '2018-12-13T15:04:37',
    ( '' ),
    ( '' ),
    'SwSTEP 2.0',
    'SolidWorks 2017',
    '' );
FILE_SCHEMA (( 'CONFIG_CONTROL_DESIGN' ));
ENDSEC;

DATA;
#1 = ORIENTED_EDGE ( 'NONE', *, *, #221, .T. ) ;
#2 = DIRECTION ( 'NONE',  ( 0.0000000000000000000, 0.0000000000000000000, 1.000000000000000000 ) ) ;
#3 = CIRCLE ( 'NONE', #26, 19.05000000000000100 ) ;
#4 = DIRECTION ( 'NONE',  ( 5.827942386483759700E-018, 2.717192996813919900E-034, 1.000000000000000000 ) ) ;
#5 = CIRCLE ( 'NONE', #80, 19.05000000000000100 ) ;
#6 = DIRECTION ( 'NONE',  ( 1.000000000000000000, 0.0000000000000000000, -5.691349986800548400E-018 ) ) ;
#7 = CARTESIAN_POINT ( 'NONE',  ( 19.17872060208879100, 6.435870641694220900, 0.4267229054993760800 ) ) ;
#8 = CARTESIAN_POINT ( 'NONE',  ( 19.04999999999999700, -8.881784197001250400E-016, 0.6360417526454988900 ) ) ;
#9 = CARTESIAN_POINT ( 'NONE',  ( 19.17872060208879100, -6.435870641694304300, 0.4267229054993773600 ) ) ;
#10 = CARTESIAN_POINT ( 'NONE',  ( -4.662936703425659800E-015, -8.881784197001250400E-016, 0.6360417526454990000 ) ) ;
#11 =( GEOMETRIC_REPRESENTATION_CONTEXT ( 3 ) GLOBAL_UNCERTAINTY_ASSIGNED_CONTEXT ( ( #52 ) ) GLOBAL_UNIT_ASSIGNED_CONTEXT ( ( #202, #111, #183 ) ) REPRESENTATION_CONTEXT ( 'NONE', 'WORKASPACE' ) );
#12 = CIRCLE ( 'NONE', #230, 19.05000000000000100 ) ;
#13 = PERSON ( 'UNSPECIFIED', 'UNSPECIFIED', 'UNSPECIFIED', ('UNSPECIFIED'), ('UNSPECIFIED'), ('UNSPECIFIED') ) ;
#14 =( BOUNDED_SURFACE ( )  B_SPLINE_SURFACE ( 3, 3, ( 
 ( #188, #94, #60, #56 ),
 ( #127, #38, #112, #9 ),
 ( #21, #37, #73, #7 ),
 ( #206, #227, #19, #110 ) ),
 .UNSPECIFIED., .F., .F., .F. ) 
 B_SPLINE_SURFACE_WITH_KNOTS ( ( 4, 4 ),
 ( 4, 4 ),
 ( 0.0000000000000000000, 1.000000000000000000 ),
 ( 0.0000000000000000000, 1.000000000000000000 ),
 .UNSPECIFIED. ) 
 GEOMETRIC_REPRESENTATION_ITEM ( )  RATIONAL_B_SPLINE_SURFACE ( (
 ( 1.000000000000000000, 0.9996242555300041100, 0.9996242555300041100, 1.000000000000000000),
 ( 0.9984794759463788700, 0.9981043028048876000, 0.9981043028048876000, 0.9984794759463788700),
 ( 0.9984794759463788700, 0.9981043028048876000, 0.9981043028048876000, 0.9984794759463788700),
 ( 1.000000000000000000, 0.9996242555300041100, 0.9996242555300041100, 1.000000000000000000) ) ) 
 REPRESENTATION_ITEM ( '' )  SURFACE ( )  );
#15 = APPROVAL_PERSON_ORGANIZATION ( #20, #16, #191 ) ;
#16 = APPROVAL ( #229, 'UNSPECIFIED' ) ;
#17 = CIRCLE ( 'NONE', #72, 19.05000000000000100 ) ;
#18 = CARTESIAN_POINT ( 'NONE',  ( 5.860640434034586500E-014, 19.04999999999940000, 0.6360417526454884600 ) ) ;
#19 = CARTESIAN_POINT ( 'NONE',  ( 12.75533321927834200, 19.27825423673267500, 0.8655483542099830000 ) ) ;
#20 = PERSON_AND_ORGANIZATION ( #13, #208 ) ;
#21 = CARTESIAN_POINT ( 'NONE',  ( 5.878193796385584000E-014, 6.435870641694220900, -0.2174614902837286000 ) ) ;
#22 = EDGE_CURVE ( 'NONE', #81, #149, #33, .T. ) ;
#23 = ORIENTED_EDGE ( 'NONE', *, *, #186, .F. ) ;
#24 = ORIENTED_EDGE ( 'NONE', *, *, #64, .T. ) ;
#25 = ADVANCED_FACE ( 'NONE', ( #45 ), #29, .T. ) ;
#26 = AXIS2_PLACEMENT_3D ( 'NONE', #203, #166, #55 ) ;
#27 = COORDINATED_UNIVERSAL_TIME_OFFSET ( 2, 0, .AHEAD. ) ;
#28 = ORIENTED_EDGE ( 'NONE', *, *, #22, .F. ) ;
#29 =( BOUNDED_SURFACE ( )  B_SPLINE_SURFACE ( 3, 3, ( 
 ( #216, #180, #222, #200 ),
 ( #68, #176, #223, #91 ),
 ( #163, #164, #125, #88 ),
 ( #69, #34, #51, #121 ) ),
 .UNSPECIFIED., .F., .F., .T. ) 
 B_SPLINE_SURFACE_WITH_KNOTS ( ( 4, 4 ),
 ( 4, 4 ),
 ( 0.0000000000000000000, 1.000000000000000000 ),
 ( 0.0000000000000000000, 1.000000000000000000 ),
 .UNSPECIFIED. ) 
 GEOMETRIC_REPRESENTATION_ITEM ( )  RATIONAL_B_SPLINE_SURFACE ( (
 ( 1.000000000000000000, 0.9996242555300041100, 0.9996242555300041100, 1.000000000000000000),
 ( 0.9984794759463788700, 0.9981043028048876000, 0.9981043028048876000, 0.9984794759463788700),
 ( 0.9984794759463788700, 0.9981043028048876000, 0.9981043028048876000, 0.9984794759463788700),
 ( 1.000000000000000000, 0.9996242555300041100, 0.9996242555300041100, 1.000000000000000000) ) ) 
 REPRESENTATION_ITEM ( '' )  SURFACE ( )  );
#30 = PERSON_AND_ORGANIZATION ( #13, #208 ) ;
#31 = AXIS2_PLACEMENT_3D ( 'NONE', #161, #2, #198 ) ;
#32 = DATE_AND_TIME ( #194, #79 ) ;
#33 = CIRCLE ( 'NONE', #197, 19.05000000000000100 ) ;
#34 = CARTESIAN_POINT ( 'NONE',  ( -12.75533321927824000, 19.27825423673267500, 0.8655483542099751100 ) ) ;
#35 = DIRECTION ( 'NONE',  ( 1.000000000000000000, 0.0000000000000000000, -5.691349986800548400E-018 ) ) ;
#36 = EDGE_LOOP ( 'NONE', ( #181, #219, #114, #177, #104 ) ) ;
#37 = CARTESIAN_POINT ( 'NONE',  ( 6.398916405860616900, 6.435870641694220900, -0.2174614902837272700 ) ) ;
#38 = CARTESIAN_POINT ( 'NONE',  ( 6.398916405860616900, -6.435870641694305200, -0.2174614902837259700 ) ) ;
#39 = DIRECTION ( 'NONE',  ( 5.827942386483759700E-018, 2.717192996813919900E-034, 1.000000000000000000 ) ) ;
#40 = EDGE_LOOP ( 'NONE', ( #155, #24, #1 ) ) ;
#41 = SECURITY_CLASSIFICATION_LEVEL ( 'unclassified' ) ;
#42 = SECURITY_CLASSIFICATION ( '', '', #41 ) ;
#43 = APPROVAL_PERSON_ORGANIZATION ( #170, #217, #210 ) ;
#44 = APPLICATION_CONTEXT ( 'configuration controlled 3d designs of mechanical parts and assemblies' ) ;
#45 = FACE_OUTER_BOUND ( 'NONE', #215, .T. ) ;
#46 = FACE_OUTER_BOUND ( 'NONE', #40, .T. ) ;
#47 = PRODUCT_DEFINITION ( 'UNKNOWN', '', #173, #148 ) ;
#48 = DIRECTION ( 'NONE',  ( 1.000000000000000000, 0.0000000000000000000, 2.056625150099659900E-016 ) ) ;
#49 = COORDINATED_UNIVERSAL_TIME_OFFSET ( 2, 0, .AHEAD. ) ;
#50 = DIRECTION ( 'NONE',  ( -5.827942386483759700E-018, -2.717192996813919900E-034, -1.000000000000000000 ) ) ;
#51 = CARTESIAN_POINT ( 'NONE',  ( -6.379464395990374300, 19.27825423673267500, 0.6513925045713679900 ) ) ;
#52 = UNCERTAINTY_MEASURE_WITH_UNIT (LENGTH_MEASURE( 1.000000000000000100E-005 ), #202, 'distance_accuracy_value', 'NONE');
#53 = CLOSED_SHELL ( 'NONE', ( #172, #134, #25, #135, #101 ) ) ;
#54 = DIRECTION ( 'NONE',  ( 5.827942386483759700E-018, 2.717192996813919900E-034, 1.000000000000000000 ) ) ;
#55 = DIRECTION ( 'NONE',  ( 1.000000000000000000, 0.0000000000000000000, 0.0000000000000000000 ) ) ;
#56 = CARTESIAN_POINT ( 'NONE',  ( 19.12041937750843700, -19.27825423673276400, 1.293618649858564900 ) ) ;
#57 = DIRECTION ( 'NONE',  ( 1.000000000000000000, 0.0000000000000000000, -5.691349986800548400E-018 ) ) ;
#58 = CARTESIAN_POINT ( 'NONE',  ( -4.662936703425659800E-015, -8.881784197001250400E-016, 0.6360417526454991100 ) ) ;
#59 = ADVANCED_BREP_SHAPE_REPRESENTATION ( '110-1439E UVFS pl-cx 38.1 F600', ( #102, #178 ), #11 ) ;
#60 = CARTESIAN_POINT ( 'NONE',  ( 12.75533321927834200, -19.27825423673275700, 0.8655483542099830000 ) ) ;
#61 = APPROVAL_STATUS ( 'not_yet_approved' ) ;
#62 = ORIENTED_EDGE ( 'NONE', *, *, #186, .T. ) ;
#63 = APPLICATION_PROTOCOL_DEFINITION ( 'international standard', 'config_control_design', 1994, #44 ) ;
#64 = EDGE_CURVE ( 'NONE', #225, #149, #137, .T. ) ;
#65 = CC_DESIGN_DATE_AND_TIME_ASSIGNMENT ( #224, #133, ( #42 ) ) ;
#66 = PLANE ( 'NONE',  #31 ) ;
#67 = CARTESIAN_POINT ( 'NONE',  ( 0.0000000000000000000, -5.684341886080800200E-014, 285.6000000000000200 ) ) ;
#68 = CARTESIAN_POINT ( 'NONE',  ( -19.17872060208866400, -6.435870641694304300, 0.4267229054993645900 ) ) ;
#69 = CARTESIAN_POINT ( 'NONE',  ( -19.12041937750830900, 19.27825423673268200, 1.293618649858552200 ) ) ;
#70 = CIRCLE ( 'NONE', #95, 19.05000000000000100 ) ;
#71 = DIRECTION ( 'NONE',  ( -5.827942386483759700E-018, -2.717192996813919900E-034, -1.000000000000000000 ) ) ;
#72 = AXIS2_PLACEMENT_3D ( 'NONE', #152, #150, #35 ) ;
#73 = CARTESIAN_POINT ( 'NONE',  ( 12.79422627554097100, 6.435870641694220900, -0.002652645120346371700 ) ) ;
#74 = VERTEX_POINT ( 'NONE', #108 ) ;
#75 = APPROVAL_STATUS ( 'not_yet_approved' ) ;
#76 = EDGE_CURVE ( 'NONE', #81, #119, #83, .T. ) ;
#77 = ORIENTED_EDGE ( 'NONE', *, *, #76, .T. ) ;
#78 = PERSON_AND_ORGANIZATION ( #13, #208 ) ;
#79 = LOCAL_TIME ( 17, 4, 37.00000000000000000, #49 ) ;
#80 = AXIS2_PLACEMENT_3D ( 'NONE', #184, #71, #57 ) ;
#81 = VERTEX_POINT ( 'NONE', #89 ) ;
#82 = APPROVAL_DATE_TIME ( #120, #201 ) ;
#83 = LINE ( 'NONE', #165, #228 ) ;
#84 = CC_DESIGN_DATE_AND_TIME_ASSIGNMENT ( #32, #232, ( #47 ) ) ;
#85 = COORDINATED_UNIVERSAL_TIME_OFFSET ( 2, 0, .AHEAD. ) ;
#86 = PERSON_AND_ORGANIZATION ( #13, #208 ) ;
#87 = VERTEX_POINT ( 'NONE', #220 ) ;
#88 = CARTESIAN_POINT ( 'NONE',  ( -6.938893903907227600E-015, 6.435870641694220900, -0.2174614902837180800 ) ) ;
#89 = CARTESIAN_POINT ( 'NONE',  ( -19.05000000000000400, 1.444773732675583000E-015, 0.6360417526454992300 ) ) ;
#90 = DIRECTION ( 'NONE',  ( 0.0000000000000000000, -1.000000000000000000, 0.0000000000000000000 ) ) ;
#91 = CARTESIAN_POINT ( 'NONE',  ( -6.938893903907227600E-015, -6.435870641694304300, -0.2174614902837168100 ) ) ;
#92 = CALENDAR_DATE ( 2018, 13, 12 ) ;
#93 = ORIENTED_EDGE ( 'NONE', *, *, #195, .T. ) ;
#94 = CARTESIAN_POINT ( 'NONE',  ( 6.379464395990448900, -19.27825423673275700, 0.6513925045713588900 ) ) ;
#95 = AXIS2_PLACEMENT_3D ( 'NONE', #58, #128, #205 ) ;
#96 = LINE ( 'NONE', #8, #231 ) ;
#97 = DIRECTION ( 'NONE',  ( 0.0000000000000000000, 0.0000000000000000000, 1.000000000000000000 ) ) ;
#98 = DIRECTION ( 'NONE',  ( 1.000000000000000000, 0.0000000000000000000, 0.0000000000000000000 ) ) ;
#99 = CC_DESIGN_APPROVAL ( #201, ( #173 ) ) ;
#100 = DATE_AND_TIME ( #92, #158 ) ;
#101 = ADVANCED_FACE ( 'NONE', ( #141 ), #66, .T. ) ;
#102 = MANIFOLD_SOLID_BREP ( 'Imported1', #53 ) ;
#103 = EDGE_CURVE ( 'NONE', #74, #119, #12, .T. ) ;
#104 = ORIENTED_EDGE ( 'NONE', *, *, #103, .T. ) ;
#105 = CALENDAR_DATE ( 2018, 13, 12 ) ;
#106 = AXIS2_PLACEMENT_3D ( 'NONE', #124, #4, #145 ) ;
#107 = ORIENTED_EDGE ( 'NONE', *, *, #138, .F. ) ;
#108 = CARTESIAN_POINT ( 'NONE',  ( 19.04999999999999700, -8.881784197001250400E-016, 4.000000000000000000 ) ) ;
#109 = DIRECTION ( 'NONE',  ( 5.827942386483759700E-018, 2.717192996813919900E-034, 1.000000000000000000 ) ) ;
#110 = CARTESIAN_POINT ( 'NONE',  ( 19.12041937750843700, 19.27825423673268200, 1.293618649858564900 ) ) ;
#111 =( NAMED_UNIT ( * ) PLANE_ANGLE_UNIT ( ) SI_UNIT ( $, .RADIAN. ) );
#112 = CARTESIAN_POINT ( 'NONE',  ( 12.79422627554097100, -6.435870641694305200, -0.002652645120345125300 ) ) ;
#113 = APPLICATION_CONTEXT ( 'configuration controlled 3d designs of mechanical parts and assemblies' ) ;
#114 = ORIENTED_EDGE ( 'NONE', *, *, #175, .F. ) ;
#115 = PERSON_AND_ORGANIZATION_ROLE ( 'creator' ) ;
#116 = AXIS2_PLACEMENT_3D ( 'NONE', #10, #109, #129 ) ;
#117 = LOCAL_TIME ( 17, 4, 37.00000000000000000, #167 ) ;
#118 = DIRECTION ( 'NONE',  ( -5.827942386483759700E-018, -2.717192996813919900E-034, -1.000000000000000000 ) ) ;
#119 = VERTEX_POINT ( 'NONE', #179 ) ;
#120 = DATE_AND_TIME ( #214, #117 ) ;
#121 = CARTESIAN_POINT ( 'NONE',  ( -1.040834085586084300E-014, 19.27825423673268200, 0.6513925045713677700 ) ) ;
#122 = EDGE_LOOP ( 'NONE', ( #28, #77, #62, #107, #126 ) ) ;
#123 = PRODUCT_DEFINITION_SHAPE ( 'NONE', 'NONE',  #47 ) ;
#124 = CARTESIAN_POINT ( 'NONE',  ( -4.662936703425659800E-015, -8.881784197001250400E-016, 0.6360417526454990000 ) ) ;
#125 = CARTESIAN_POINT ( 'NONE',  ( -6.398916405860537900, 6.435870641694220900, -0.2174614902837179200 ) ) ;
#126 = ORIENTED_EDGE ( 'NONE', *, *, #221, .F. ) ;
#127 = CARTESIAN_POINT ( 'NONE',  ( 5.878193796385584000E-014, -6.435870641694304300, -0.2174614902837273000 ) ) ;
#128 = DIRECTION ( 'NONE',  ( -5.827942386483759700E-018, -2.717192996813919900E-034, -1.000000000000000000 ) ) ;
#129 = DIRECTION ( 'NONE',  ( 1.000000000000000000, 0.0000000000000000000, -5.691349986800548400E-018 ) ) ;
#130 = PERSON_AND_ORGANIZATION ( #13, #208 ) ;
#131 = PERSON_AND_ORGANIZATION ( #13, #208 ) ;
#132 = CYLINDRICAL_SURFACE ( 'NONE', #106, 19.05000000000000100 ) ;
#133 = DATE_TIME_ROLE ( 'classification_date' ) ;
#134 = ADVANCED_FACE ( 'NONE', ( #196 ), #132, .T. ) ;
#135 = ADVANCED_FACE ( 'NONE', ( #169 ), #209, .T. ) ;
#136 = APPROVAL_ROLE ( '' ) ;
#137 = CIRCLE ( 'NONE', #207, 285.5999999999999700 ) ;
#138 = EDGE_CURVE ( 'NONE', #87, #74, #96, .T. ) ;
#139 = CC_DESIGN_PERSON_AND_ORGANIZATION_ASSIGNMENT ( #86, #211, ( #185 ) ) ;
#140 = LOCAL_TIME ( 17, 4, 37.00000000000000000, #27 ) ;
#141 = FACE_OUTER_BOUND ( 'NONE', #234, .T. ) ;
#142 = APPROVAL_DATE_TIME ( #160, #217 ) ;
#143 = PERSON_AND_ORGANIZATION ( #13, #208 ) ;
#144 = ORIENTED_EDGE ( 'NONE', *, *, #22, .T. ) ;
#145 = DIRECTION ( 'NONE',  ( 1.000000000000000000, 0.0000000000000000000, -5.691349986800548400E-018 ) ) ;
#146 = CC_DESIGN_PERSON_AND_ORGANIZATION_ASSIGNMENT ( #131, #115, ( #47 ) ) ;
#147 = DIRECTION ( 'NONE',  ( 1.000000000000000000, 0.0000000000000000000, 0.0000000000000000000 ) ) ;
#148 = DESIGN_CONTEXT ( 'detailed design', #44, 'design' ) ;
#149 = VERTEX_POINT ( 'NONE', #18 ) ;
#150 = DIRECTION ( 'NONE',  ( -5.827942386483759700E-018, -2.717192996813919900E-034, -1.000000000000000000 ) ) ;
#151 = APPROVAL_DATE_TIME ( #100, #16 ) ;
#152 = CARTESIAN_POINT ( 'NONE',  ( -4.662936703425659800E-015, -8.881784197001250400E-016, 0.6360417526454991100 ) ) ;
#153 = CC_DESIGN_SECURITY_CLASSIFICATION ( #42, ( #173 ) ) ;
#154 = MECHANICAL_CONTEXT ( 'NONE', #113, 'mechanical' ) ;
#155 = ORIENTED_EDGE ( 'NONE', *, *, #175, .T. ) ;
#156 = PERSON_AND_ORGANIZATION_ROLE ( 'design_supplier' ) ;
#157 = CC_DESIGN_PERSON_AND_ORGANIZATION_ASSIGNMENT ( #30, #189, ( #42 ) ) ;
#158 = LOCAL_TIME ( 17, 4, 37.00000000000000000, #233 ) ;
#159 = CC_DESIGN_PERSON_AND_ORGANIZATION_ASSIGNMENT ( #130, #171, ( #173 ) ) ;
#160 = DATE_AND_TIME ( #105, #213 ) ;
#161 = CARTESIAN_POINT ( 'NONE',  ( 0.0000000000000000000, 39.06600000000000300, 4.000000000000000000 ) ) ;
#162 = CARTESIAN_POINT ( 'NONE',  ( -4.643331748569541300E-015, -8.881784197001250400E-016, 4.000000000000000000 ) ) ;
#163 = CARTESIAN_POINT ( 'NONE',  ( -19.17872060208866400, 6.435870641694220900, 0.4267229054993634300 ) ) ;
#164 = CARTESIAN_POINT ( 'NONE',  ( -12.79422627554086700, 6.435870641694220900, -0.002652645120354340100 ) ) ;
#165 = CARTESIAN_POINT ( 'NONE',  ( -19.05000000000000400, 1.444773732675583000E-015, 0.6360417526454991100 ) ) ;
#166 = DIRECTION ( 'NONE',  ( -5.827942386483759700E-018, -2.717192996813919900E-034, -1.000000000000000000 ) ) ;
#167 = COORDINATED_UNIVERSAL_TIME_OFFSET ( 2, 0, .AHEAD. ) ;
#168 = CC_DESIGN_PERSON_AND_ORGANIZATION_ASSIGNMENT ( #78, #156, ( #173 ) ) ;
#169 = FACE_OUTER_BOUND ( 'NONE', #36, .T. ) ;
#170 = PERSON_AND_ORGANIZATION ( #13, #208 ) ;
#171 = PERSON_AND_ORGANIZATION_ROLE ( 'creator' ) ;
#172 = ADVANCED_FACE ( 'NONE', ( #46 ), #14, .T. ) ;
#173 = PRODUCT_DEFINITION_FORMATION_WITH_SPECIFIED_SOURCE ( 'ANY', '', #185, .NOT_KNOWN. ) ;
#174 = ORIENTED_EDGE ( 'NONE', *, *, #103, .F. ) ;
#175 = EDGE_CURVE ( 'NONE', #87, #225, #17, .T. ) ;
#176 = CARTESIAN_POINT ( 'NONE',  ( -12.79422627554086700, -6.435870641694305200, -0.002652645120353148400 ) ) ;
#177 = ORIENTED_EDGE ( 'NONE', *, *, #138, .T. ) ;
#178 = AXIS2_PLACEMENT_3D ( 'NONE', #226, #97, #98 ) ;
#179 = CARTESIAN_POINT ( 'NONE',  ( -19.05000000000000400, 1.444773732675583000E-015, 4.000000000000000000 ) ) ;
#180 = CARTESIAN_POINT ( 'NONE',  ( -12.75533321927824000, -19.27825423673275700, 0.8655483542099751100 ) ) ;
#181 = ORIENTED_EDGE ( 'NONE', *, *, #76, .F. ) ;
#182 = CARTESIAN_POINT ( 'NONE',  ( 5.860640434034586500E-014, -19.04999999999945700, 0.6360417526454884600 ) ) ;
#183 =( NAMED_UNIT ( * ) SI_UNIT ( $, .STERADIAN. ) SOLID_ANGLE_UNIT ( ) );
#184 = CARTESIAN_POINT ( 'NONE',  ( -4.662936703425659800E-015, -8.881784197001250400E-016, 0.6360417526454991100 ) ) ;
#185 = PRODUCT ( '110-1439E UVFS pl-cx 38.1 F600', '110-1439E UVFS pl-cx 38.1 F600', '', ( #154 ) ) ;
#186 = EDGE_CURVE ( 'NONE', #119, #74, #3, .T. ) ;
#187 = SHAPE_DEFINITION_REPRESENTATION ( #123, #59 ) ;
#188 = CARTESIAN_POINT ( 'NONE',  ( 5.860324726609750000E-014, -19.27825423673276400, 0.6513925045713575600 ) ) ;
#189 = PERSON_AND_ORGANIZATION_ROLE ( 'classification_officer' ) ;
#190 = CC_DESIGN_APPROVAL ( #16, ( #47 ) ) ;
#191 = APPROVAL_ROLE ( '' ) ;
#192 = CC_DESIGN_APPROVAL ( #217, ( #42 ) ) ;
#193 = APPLICATION_PROTOCOL_DEFINITION ( 'international standard', 'config_control_design', 1994, #113 ) ;
#194 = CALENDAR_DATE ( 2018, 13, 12 ) ;
#195 = EDGE_CURVE ( 'NONE', #225, #81, #5, .T. ) ;
#196 = FACE_OUTER_BOUND ( 'NONE', #122, .T. ) ;
#197 = AXIS2_PLACEMENT_3D ( 'NONE', #235, #118, #6 ) ;
#198 = DIRECTION ( 'NONE',  ( 1.000000000000000000, 0.0000000000000000000, -0.0000000000000000000 ) ) ;
#199 = ORIENTED_EDGE ( 'NONE', *, *, #64, .F. ) ;
#200 = CARTESIAN_POINT ( 'NONE',  ( -1.040834085586084300E-014, -19.27825423673276400, 0.6513925045713677700 ) ) ;
#201 = APPROVAL ( #61, 'UNSPECIFIED' ) ;
#202 =( LENGTH_UNIT ( ) NAMED_UNIT ( * ) SI_UNIT ( .MILLI., .METRE. ) );
#203 = CARTESIAN_POINT ( 'NONE',  ( -4.643331748569541300E-015, -8.881784197001250400E-016, 4.000000000000000000 ) ) ;
#204 = PRODUCT_RELATED_PRODUCT_CATEGORY ( 'detail', '', ( #185 ) ) ;
#205 = DIRECTION ( 'NONE',  ( 1.000000000000000000, 0.0000000000000000000, -5.691349986800548400E-018 ) ) ;
#206 = CARTESIAN_POINT ( 'NONE',  ( 5.860324726609750000E-014, 19.27825423673268200, 0.6513925045713575600 ) ) ;
#207 = AXIS2_PLACEMENT_3D ( 'NONE', #67, #48, #90 ) ;
#208 = ORGANIZATION ( 'UNSPECIFIED', 'UNSPECIFIED', '' ) ;
#209 = CYLINDRICAL_SURFACE ( 'NONE', #116, 19.05000000000000100 ) ;
#210 = APPROVAL_ROLE ( '' ) ;
#211 = PERSON_AND_ORGANIZATION_ROLE ( 'design_owner' ) ;
#212 = CALENDAR_DATE ( 2018, 13, 12 ) ;
#213 = LOCAL_TIME ( 17, 4, 37.00000000000000000, #85 ) ;
#214 = CALENDAR_DATE ( 2018, 13, 12 ) ;
#215 = EDGE_LOOP ( 'NONE', ( #199, #93, #144 ) ) ;
#216 = CARTESIAN_POINT ( 'NONE',  ( -19.12041937750830900, -19.27825423673276400, 1.293618649858552200 ) ) ;
#217 = APPROVAL ( #75, 'UNSPECIFIED' ) ;
#218 = APPROVAL_PERSON_ORGANIZATION ( #143, #201, #136 ) ;
#219 = ORIENTED_EDGE ( 'NONE', *, *, #195, .F. ) ;
#220 = CARTESIAN_POINT ( 'NONE',  ( 19.04999999999999700, -8.881784197001250400E-016, 0.6360417526454990000 ) ) ;
#221 = EDGE_CURVE ( 'NONE', #149, #87, #70, .T. ) ;
#222 = CARTESIAN_POINT ( 'NONE',  ( -6.379464395990374300, -19.27825423673275700, 0.6513925045713679900 ) ) ;
#223 = CARTESIAN_POINT ( 'NONE',  ( -6.398916405860537900, -6.435870641694305200, -0.2174614902837166100 ) ) ;
#224 = DATE_AND_TIME ( #212, #140 ) ;
#225 = VERTEX_POINT ( 'NONE', #182 ) ;
#226 = CARTESIAN_POINT ( 'NONE',  ( 0.0000000000000000000, 0.0000000000000000000, 0.0000000000000000000 ) ) ;
#227 = CARTESIAN_POINT ( 'NONE',  ( 6.379464395990448900, 19.27825423673267500, 0.6513925045713588900 ) ) ;
#228 = VECTOR ( 'NONE', #54, 1000.000000000000000 ) ;
#229 = APPROVAL_STATUS ( 'not_yet_approved' ) ;
#230 = AXIS2_PLACEMENT_3D ( 'NONE', #162, #50, #147 ) ;
#231 = VECTOR ( 'NONE', #39, 1000.000000000000000 ) ;
#232 = DATE_TIME_ROLE ( 'creation_date' ) ;
#233 = COORDINATED_UNIVERSAL_TIME_OFFSET ( 2, 0, .AHEAD. ) ;
#234 = EDGE_LOOP ( 'NONE', ( #174, #23 ) ) ;
#235 = CARTESIAN_POINT ( 'NONE',  ( -4.662936703425659800E-015, -8.881784197001250400E-016, 0.6360417526454991100 ) ) ;
ENDSEC;
END-ISO-10303-21;
