ISO-10303-21;
HEADER;
FILE_DESCRIPTION (( 'STEP AP203' ),
    '1' );
FILE_NAME ('110-1435E UVFS pl-cx 38.1 F500.STEP',
    '2018-12-13T15:05:00',
    ( '' ),
    ( '' ),
    'SwSTEP 2.0',
    'SolidWorks 2017',
    '' );
FILE_SCHEMA (( 'CONFIG_CONTROL_DESIGN' ));
ENDSEC;

DATA;
#1 = ORGANIZATION ( 'UNSPECIFIED', 'UNSPECIFIED', '' ) ;
#2 = ORIENTED_EDGE ( 'NONE', *, *, #91, .T. ) ;
#3 = CC_DESIGN_DATE_AND_TIME_ASSIGNMENT ( #164, #195, ( #212 ) ) ;
#4 = CARTESIAN_POINT ( 'NONE',  ( -4.644075297897137800E-015, -8.881784197001250400E-016, 4.000000000000000000 ) ) ;
#5 = DIRECTION ( 'NONE',  ( 1.000000000000000000, 0.0000000000000000000, -5.691349986800548400E-018 ) ) ;
#6 = AXIS2_PLACEMENT_3D ( 'NONE', #14, #135, #32 ) ;
#7 = DATE_AND_TIME ( #185, #50 ) ;
#8 = APPLICATION_CONTEXT ( 'configuration controlled 3d designs of mechanical parts and assemblies' ) ;
#9 = APPROVAL_STATUS ( 'not_yet_approved' ) ;
#10 = MANIFOLD_SOLID_BREP ( 'Imported1', #11 ) ;
#11 = CLOSED_SHELL ( 'NONE', ( #148, #205, #57, #95, #126 ) ) ;
#12 = COORDINATED_UNIVERSAL_TIME_OFFSET ( 2, 0, .AHEAD. ) ;
#13 = CARTESIAN_POINT ( 'NONE',  ( -19.10108126994552100, 19.27810171046781600, 1.552323993743220900 ) ) ;
#14 = CARTESIAN_POINT ( 'NONE',  ( -4.662936703425659800E-015, -8.881784197001250400E-016, 0.7636252595315000700 ) ) ;
#15 = CARTESIAN_POINT ( 'NONE',  ( -19.05000000000000400, 1.444773732675583000E-015, 0.7636252595315001800 ) ) ;
#16 = COORDINATED_UNIVERSAL_TIME_OFFSET ( 2, 0, .AHEAD. ) ;
#17 = ORIENTED_EDGE ( 'NONE', *, *, #158, .F. ) ;
#18 = PLANE ( 'NONE',  #144 ) ;
#19 = CARTESIAN_POINT ( 'NONE',  ( 19.18508975342838200, -6.440141821110751500, 0.5124032477044432300 ) ) ;
#20 = AXIS2_PLACEMENT_3D ( 'NONE', #136, #216, #235 ) ;
#21 = APPLICATION_CONTEXT ( 'configuration controlled 3d designs of mechanical parts and assemblies' ) ;
#22 = DIRECTION ( 'NONE',  ( -5.827942386483759700E-018, -2.717192996813919900E-034, -1.000000000000000000 ) ) ;
#23 = LOCAL_TIME ( 17, 5, 0.0000000000000000000, #63 ) ;
#24 = VERTEX_POINT ( 'NONE', #15 ) ;
#25 = PERSON_AND_ORGANIZATION_ROLE ( 'design_owner' ) ;
#26 = CALENDAR_DATE ( 2018, 13, 12 ) ;
#27 = APPROVAL_ROLE ( '' ) ;
#28 = APPROVAL_PERSON_ORGANIZATION ( #73, #128, #228 ) ;
#29 = EDGE_LOOP ( 'NONE', ( #186, #193, #33, #182, #76 ) ) ;
#30 = AXIS2_PLACEMENT_3D ( 'NONE', #54, #96, #114 ) ;
#31 = CARTESIAN_POINT ( 'NONE',  ( -6.375653801204952000, 19.27810171046781900, 0.7820521241260650600 ) ) ;
#32 = DIRECTION ( 'NONE',  ( 1.000000000000000000, 8.881784197001252300E-016, -5.691349986800548400E-018 ) ) ;
#33 = ORIENTED_EDGE ( 'NONE', *, *, #171, .T. ) ;
#34 = CARTESIAN_POINT ( 'NONE',  ( -6.938893903907228400E-015, -6.440141821110756800, -0.2612563553462701700 ) ) ;
#35 = CARTESIAN_POINT ( 'NONE',  ( 4.989452423019588700E-014, -6.440141821110755100, -0.2612563553462852200 ) ) ;
#36 = CC_DESIGN_PERSON_AND_ORGANIZATION_ASSIGNMENT ( #197, #210, ( #87 ) ) ;
#37 = ORIENTED_EDGE ( 'NONE', *, *, #188, .T. ) ;
#38 = AXIS2_PLACEMENT_3D ( 'NONE', #107, #120, #157 ) ;
#39 =( BOUNDED_SURFACE ( )  B_SPLINE_SURFACE ( 3, 3, ( 
 ( #105, #180, #137, #61 ),
 ( #47, #156, #84, #34 ),
 ( #217, #62, #181, #65 ),
 ( #13, #213, #31, #101 ) ),
 .UNSPECIFIED., .F., .F., .F. ) 
 B_SPLINE_SURFACE_WITH_KNOTS ( ( 4, 4 ),
 ( 4, 4 ),
 ( 0.0000000000000000000, 1.000000000000000000 ),
 ( 0.0000000000000000000, 1.000000000000000000 ),
 .UNSPECIFIED. ) 
 GEOMETRIC_REPRESENTATION_ITEM ( )  RATIONAL_B_SPLINE_SURFACE ( (
 ( 1.000000000000000000, 0.9994585957942243600, 0.9994585957942243600, 1.000000000000000000),
 ( 0.9978093778035683800, 0.9972691596098631800, 0.9972691596098631800, 0.9978093778035683800),
 ( 0.9978093778035683800, 0.9972691596098631800, 0.9972691596098631800, 0.9978093778035683800),
 ( 1.000000000000000000, 0.9994585957942243600, 0.9994585957942243600, 1.000000000000000000) ) ) 
 REPRESENTATION_ITEM ( '' )  SURFACE ( )  );
#40 = DIRECTION ( 'NONE',  ( 5.827942386483759700E-018, 2.717192996813919900E-034, 1.000000000000000000 ) ) ;
#41 = ORIENTED_EDGE ( 'NONE', *, *, #79, .T. ) ;
#42 = LINE ( 'NONE', #178, #168 ) ;
#43 = PERSON ( 'UNSPECIFIED', 'UNSPECIFIED', 'UNSPECIFIED', ('UNSPECIFIED'), ('UNSPECIFIED'), ('UNSPECIFIED') ) ;
#44 = ORIENTED_EDGE ( 'NONE', *, *, #97, .F. ) ;
#45 = CC_DESIGN_PERSON_AND_ORGANIZATION_ASSIGNMENT ( #194, #151, ( #87 ) ) ;
#46 = ORIENTED_EDGE ( 'NONE', *, *, #231, .T. ) ;
#47 = CARTESIAN_POINT ( 'NONE',  ( -19.18508975342861700, -6.440141821110762200, 0.5124032477044938600 ) ) ;
#48 = LOCAL_TIME ( 17, 5, 0.0000000000000000000, #16 ) ;
#49 = CARTESIAN_POINT ( 'NONE',  ( 4.365170804625679400E-014, 19.27810171046782300, 0.7820521241260480800 ) ) ;
#50 = LOCAL_TIME ( 17, 5, 0.0000000000000000000, #170 ) ;
#51 = CARTESIAN_POINT ( 'NONE',  ( 5.301037720380197000E-014, -19.04999999999977000, 0.7636252595314848600 ) ) ;
#52 =( NAMED_UNIT ( * ) SI_UNIT ( $, .STERADIAN. ) SOLID_ANGLE_UNIT ( ) );
#53 = DIRECTION ( 'NONE',  ( 1.000000000000000000, 0.0000000000000000000, 0.0000000000000000000 ) ) ;
#54 = CARTESIAN_POINT ( 'NONE',  ( 0.0000000000000000000, 0.0000000000000000000, 0.0000000000000000000 ) ) ;
#55 = PERSON_AND_ORGANIZATION_ROLE ( 'creator' ) ;
#56 = APPROVAL_DATE_TIME ( #99, #72 ) ;
#57 = ADVANCED_FACE ( 'NONE', ( #117 ), #39, .T. ) ;
#58 = SECURITY_CLASSIFICATION_LEVEL ( 'unclassified' ) ;
#59 = AXIS2_PLACEMENT_3D ( 'NONE', #169, #222, #225 ) ;
#60 = EDGE_LOOP ( 'NONE', ( #127, #211, #2 ) ) ;
#61 = CARTESIAN_POINT ( 'NONE',  ( -6.938893903907228400E-015, -19.27810171046781200, 0.7820521241260909300 ) ) ;
#62 = CARTESIAN_POINT ( 'NONE',  ( -12.80218865959956000, 6.440141821110761300, -0.003230124509461342900 ) ) ;
#63 = COORDINATED_UNIVERSAL_TIME_OFFSET ( 2, 0, .AHEAD. ) ;
#64 = CIRCLE ( 'NONE', #59, 19.05000000000000100 ) ;
#65 = CARTESIAN_POINT ( 'NONE',  ( -6.938893903907228400E-015, 6.440141821110765700, -0.2612563553462939900 ) ) ;
#66 = SECURITY_CLASSIFICATION ( '', '', #58 ) ;
#67 = CALENDAR_DATE ( 2018, 13, 12 ) ;
#68 = DIRECTION ( 'NONE',  ( 0.0000000000000000000, 0.0000000000000000000, 1.000000000000000000 ) ) ;
#69 = CARTESIAN_POINT ( 'NONE',  ( 12.74612989373593100, 19.27810171046782600, 1.038948498776101700 ) ) ;
#70 = PRODUCT_RELATED_PRODUCT_CATEGORY ( 'detail', '', ( #234 ) ) ;
#71 = DIRECTION ( 'NONE',  ( 2.441897141834630300E-016, -1.000000000000000000, -4.664802624475447800E-016 ) ) ;
#72 = APPROVAL ( #77, 'UNSPECIFIED' ) ;
#73 = PERSON_AND_ORGANIZATION ( #43, #1 ) ;
#74 = SHAPE_DEFINITION_REPRESENTATION ( #131, #160 ) ;
#75 = DIRECTION ( 'NONE',  ( 1.000000000000000000, 0.0000000000000000000, -5.691349986800548400E-018 ) ) ;
#76 = ORIENTED_EDGE ( 'NONE', *, *, #91, .F. ) ;
#77 = APPROVAL_STATUS ( 'not_yet_approved' ) ;
#78 = UNCERTAINTY_MEASURE_WITH_UNIT (LENGTH_MEASURE( 1.000000000000000100E-005 ), #145, 'distance_accuracy_value', 'NONE');
#79 = EDGE_CURVE ( 'NONE', #93, #153, #42, .T. ) ;
#80 = PERSON_AND_ORGANIZATION_ROLE ( 'classification_officer' ) ;
#81 =( BOUNDED_SURFACE ( )  B_SPLINE_SURFACE ( 3, 3, ( 
 ( #92, #165, #111, #221 ),
 ( #35, #201, #220, #19 ),
 ( #108, #141, #184, #162 ),
 ( #49, #139, #69, #90 ) ),
 .UNSPECIFIED., .F., .F., .F. ) 
 B_SPLINE_SURFACE_WITH_KNOTS ( ( 4, 4 ),
 ( 4, 4 ),
 ( 0.0000000000000000000, 1.000000000000000000 ),
 ( 0.0000000000000000000, 1.000000000000000000 ),
 .UNSPECIFIED. ) 
 GEOMETRIC_REPRESENTATION_ITEM ( )  RATIONAL_B_SPLINE_SURFACE ( (
 ( 1.000000000000000000, 0.9994585957942243600, 0.9994585957942243600, 1.000000000000000000),
 ( 0.9978093778035683800, 0.9972691596098631800, 0.9972691596098631800, 0.9978093778035683800),
 ( 0.9978093778035683800, 0.9972691596098631800, 0.9972691596098631800, 0.9978093778035683800),
 ( 1.000000000000000000, 0.9994585957942243600, 0.9994585957942243600, 1.000000000000000000) ) ) 
 REPRESENTATION_ITEM ( '' )  SURFACE ( )  );
#82 = FACE_OUTER_BOUND ( 'NONE', #29, .T. ) ;
#83 = CC_DESIGN_PERSON_AND_ORGANIZATION_ASSIGNMENT ( #133, #80, ( #66 ) ) ;
#84 = CARTESIAN_POINT ( 'NONE',  ( -6.403694570179381700, -6.440141821110757700, -0.2612563553462684000 ) ) ;
#85 = CYLINDRICAL_SURFACE ( 'NONE', #176, 19.05000000000000100 ) ;
#86 = CARTESIAN_POINT ( 'NONE',  ( -19.05000000000000400, 1.444773732675583000E-015, 4.000000000000000000 ) ) ;
#87 = PRODUCT_DEFINITION_FORMATION_WITH_SPECIFIED_SOURCE ( 'ANY', '', #234, .NOT_KNOWN. ) ;
#88 = FACE_OUTER_BOUND ( 'NONE', #230, .T. ) ;
#89 = CARTESIAN_POINT ( 'NONE',  ( -19.05000000000000400, 1.444773732675583000E-015, 0.7636252595315000700 ) ) ;
#90 = CARTESIAN_POINT ( 'NONE',  ( 19.10108126994528300, 19.27810171046782600, 1.552323993743170500 ) ) ;
#91 = EDGE_CURVE ( 'NONE', #134, #93, #113, .T. ) ;
#92 = CARTESIAN_POINT ( 'NONE',  ( 5.306673633961452400E-014, -19.27810171046780900, 0.7820521241260758300 ) ) ;
#93 = VERTEX_POINT ( 'NONE', #198 ) ;
#94 = ORIENTED_EDGE ( 'NONE', *, *, #118, .F. ) ;
#95 = ADVANCED_FACE ( 'NONE', ( #200 ), #226, .T. ) ;
#96 = DIRECTION ( 'NONE',  ( 0.0000000000000000000, 0.0000000000000000000, 1.000000000000000000 ) ) ;
#97 = EDGE_CURVE ( 'NONE', #138, #24, #177, .T. ) ;
#98 = ORIENTED_EDGE ( 'NONE', *, *, #171, .F. ) ;
#99 = DATE_AND_TIME ( #26, #155 ) ;
#100 = CIRCLE ( 'NONE', #115, 19.05000000000000100 ) ;
#101 = CARTESIAN_POINT ( 'NONE',  ( -1.387778780781445700E-014, 19.27810171046781900, 0.7820521241260634000 ) ) ;
#102 = APPROVAL_PERSON_ORGANIZATION ( #219, #154, #27 ) ;
#103 = DESIGN_CONTEXT ( 'detailed design', #8, 'design' ) ;
#104 = DIRECTION ( 'NONE',  ( 5.827942386483759700E-018, 2.717192996813919900E-034, 1.000000000000000000 ) ) ;
#105 = CARTESIAN_POINT ( 'NONE',  ( -19.10108126994551000, -19.27810171046781600, 1.552323993743248700 ) ) ;
#106 = FACE_OUTER_BOUND ( 'NONE', #60, .T. ) ;
#107 = CARTESIAN_POINT ( 'NONE',  ( -4.662936703425659800E-015, -8.881784197001250400E-016, 0.7636252595314999600 ) ) ;
#108 = CARTESIAN_POINT ( 'NONE',  ( 4.674929144899988500E-014, 6.440141821110767500, -0.2612563553463093100 ) ) ;
#109 = CC_DESIGN_DATE_AND_TIME_ASSIGNMENT ( #116, #150, ( #66 ) ) ;
#110 = CARTESIAN_POINT ( 'NONE',  ( 5.684341886080800200E-014, 4.263256414560599900E-014, 238.0000000000000300 ) ) ;
#111 = CARTESIAN_POINT ( 'NONE',  ( 12.74612989373593500, -19.27810171046780900, 1.038948498776129500 ) ) ;
#112 = LOCAL_TIME ( 17, 5, 0.0000000000000000000, #173 ) ;
#113 = CIRCLE ( 'NONE', #6, 19.05000000000000100 ) ;
#114 = DIRECTION ( 'NONE',  ( 1.000000000000000000, 0.0000000000000000000, 0.0000000000000000000 ) ) ;
#115 = AXIS2_PLACEMENT_3D ( 'NONE', #4, #22, #206 ) ;
#116 = DATE_AND_TIME ( #67, #112 ) ;
#117 = FACE_OUTER_BOUND ( 'NONE', #232, .T. ) ;
#118 = EDGE_CURVE ( 'NONE', #138, #134, #130, .T. ) ;
#119 = PERSON_AND_ORGANIZATION ( #43, #1 ) ;
#120 = DIRECTION ( 'NONE',  ( 5.827942386483759700E-018, 2.717192996813919900E-034, 1.000000000000000000 ) ) ;
#121 = VECTOR ( 'NONE', #142, 1000.000000000000000 ) ;
#122 = VERTEX_POINT ( 'NONE', #86 ) ;
#123 = DIRECTION ( 'NONE',  ( 1.000000000000000000, 0.0000000000000000000, -0.0000000000000000000 ) ) ;
#124 = APPROVAL_DATE_TIME ( #7, #154 ) ;
#125 = CIRCLE ( 'NONE', #175, 19.05000000000000100 ) ;
#126 = ADVANCED_FACE ( 'NONE', ( #88 ), #18, .T. ) ;
#127 = ORIENTED_EDGE ( 'NONE', *, *, #158, .T. ) ;
#128 = APPROVAL ( #9, 'UNSPECIFIED' ) ;
#129 = EDGE_LOOP ( 'NONE', ( #147, #44, #17, #41, #37 ) ) ;
#130 = CIRCLE ( 'NONE', #199, 238.0000000000000000 ) ;
#131 = PRODUCT_DEFINITION_SHAPE ( 'NONE', 'NONE',  #212 ) ;
#132 = EDGE_CURVE ( 'NONE', #24, #122, #174, .T. ) ;
#133 = PERSON_AND_ORGANIZATION ( #43, #1 ) ;
#134 = VERTEX_POINT ( 'NONE', #166 ) ;
#135 = DIRECTION ( 'NONE',  ( -5.827942386483759700E-018, -2.717192996813919900E-034, -1.000000000000000000 ) ) ;
#136 = CARTESIAN_POINT ( 'NONE',  ( -4.662936703425659800E-015, -8.881784197001250400E-016, 0.7636252595315000700 ) ) ;
#137 = CARTESIAN_POINT ( 'NONE',  ( -6.375653801204944000, -19.27810171046781600, 0.7820521241260927100 ) ) ;
#138 = VERTEX_POINT ( 'NONE', #51 ) ;
#139 = CARTESIAN_POINT ( 'NONE',  ( 6.375653801204890700, 19.27810171046782300, 0.7820521241260478500 ) ) ;
#140 = CC_DESIGN_APPROVAL ( #128, ( #66 ) ) ;
#141 = CARTESIAN_POINT ( 'NONE',  ( 6.403694570179332000, 6.440141821110768400, -0.2612563553463095300 ) ) ;
#142 = DIRECTION ( 'NONE',  ( 5.827942386483759700E-018, 2.717192996813919900E-034, 1.000000000000000000 ) ) ;
#143 = APPLICATION_PROTOCOL_DEFINITION ( 'international standard', 'config_control_design', 1994, #21 ) ;
#144 = AXIS2_PLACEMENT_3D ( 'NONE', #218, #68, #123 ) ;
#145 =( LENGTH_UNIT ( ) NAMED_UNIT ( * ) SI_UNIT ( .MILLI., .METRE. ) );
#146 = APPROVAL_PERSON_ORGANIZATION ( #208, #72, #172 ) ;
#147 = ORIENTED_EDGE ( 'NONE', *, *, #132, .F. ) ;
#148 = ADVANCED_FACE ( 'NONE', ( #106 ), #81, .T. ) ;
#149 = DIRECTION ( 'NONE',  ( -5.827942386483759700E-018, -2.717192996813919900E-034, -1.000000000000000000 ) ) ;
#150 = DATE_TIME_ROLE ( 'classification_date' ) ;
#151 = PERSON_AND_ORGANIZATION_ROLE ( 'design_supplier' ) ;
#152 = APPLICATION_PROTOCOL_DEFINITION ( 'international standard', 'config_control_design', 1994, #8 ) ;
#153 = VERTEX_POINT ( 'NONE', #233 ) ;
#154 = APPROVAL ( #227, 'UNSPECIFIED' ) ;
#155 = LOCAL_TIME ( 17, 5, 0.0000000000000000000, #12 ) ;
#156 = CARTESIAN_POINT ( 'NONE',  ( -12.80218865959955600, -6.440141821110759500, -0.003230124509437273200 ) ) ;
#157 = DIRECTION ( 'NONE',  ( 1.000000000000000000, 0.0000000000000000000, -5.691349986800548400E-018 ) ) ;
#158 = EDGE_CURVE ( 'NONE', #93, #138, #179, .T. ) ;
#159 = PERSON_AND_ORGANIZATION ( #43, #1 ) ;
#160 = ADVANCED_BREP_SHAPE_REPRESENTATION ( '110-1435E UVFS pl-cx 38.1 F500', ( #10, #30 ), #192 ) ;
#161 = ORIENTED_EDGE ( 'NONE', *, *, #188, .F. ) ;
#162 = CARTESIAN_POINT ( 'NONE',  ( 19.18508975342838200, 6.440141821110771900, 0.5124032477044194700 ) ) ;
#163 = DIRECTION ( 'NONE',  ( 1.000000000000000000, 2.441897141834629800E-016, -3.576540790375509800E-017 ) ) ;
#164 = DATE_AND_TIME ( #204, #48 ) ;
#165 = CARTESIAN_POINT ( 'NONE',  ( 6.375653801204899600, -19.27810171046781200, 0.7820521241260756100 ) ) ;
#166 = CARTESIAN_POINT ( 'NONE',  ( 4.370674909341212700E-014, 19.04999999999981600, 0.7636252595314848600 ) ) ;
#167 = CARTESIAN_POINT ( 'NONE',  ( -4.662936703425659800E-015, -8.881784197001250400E-016, 0.7636252595315000700 ) ) ;
#168 = VECTOR ( 'NONE', #104, 1000.000000000000000 ) ;
#169 = CARTESIAN_POINT ( 'NONE',  ( -4.662936703425659800E-015, -8.881784197001250400E-016, 0.7636252595315000700 ) ) ;
#170 = COORDINATED_UNIVERSAL_TIME_OFFSET ( 2, 0, .AHEAD. ) ;
#171 = EDGE_CURVE ( 'NONE', #122, #153, #125, .T. ) ;
#172 = APPROVAL_ROLE ( '' ) ;
#173 = COORDINATED_UNIVERSAL_TIME_OFFSET ( 2, 0, .AHEAD. ) ;
#174 = LINE ( 'NONE', #89, #121 ) ;
#175 = AXIS2_PLACEMENT_3D ( 'NONE', #191, #223, #53 ) ;
#176 = AXIS2_PLACEMENT_3D ( 'NONE', #203, #40, #75 ) ;
#177 = CIRCLE ( 'NONE', #20, 19.05000000000000100 ) ;
#178 = CARTESIAN_POINT ( 'NONE',  ( 19.04999999999999700, -8.881784197001250400E-016, 0.7636252595314998400 ) ) ;
#179 = CIRCLE ( 'NONE', #202, 19.05000000000000100 ) ;
#180 = CARTESIAN_POINT ( 'NONE',  ( -12.74612989373606600, -19.27810171046781600, 1.038948498776163500 ) ) ;
#181 = CARTESIAN_POINT ( 'NONE',  ( -6.403694570179382600, 6.440141821110763100, -0.2612563553462923200 ) ) ;
#182 = ORIENTED_EDGE ( 'NONE', *, *, #79, .F. ) ;
#183 = CC_DESIGN_PERSON_AND_ORGANIZATION_ASSIGNMENT ( #159, #55, ( #212 ) ) ;
#184 = CARTESIAN_POINT ( 'NONE',  ( 12.80218865959942100, 6.440141821110769300, -0.003230124509495061600 ) ) ;
#185 = CALENDAR_DATE ( 2018, 13, 12 ) ;
#186 = ORIENTED_EDGE ( 'NONE', *, *, #231, .F. ) ;
#187 = MECHANICAL_CONTEXT ( 'NONE', #21, 'mechanical' ) ;
#188 = EDGE_CURVE ( 'NONE', #153, #122, #100, .T. ) ;
#189 =( NAMED_UNIT ( * ) PLANE_ANGLE_UNIT ( ) SI_UNIT ( $, .RADIAN. ) );
#190 = DATE_AND_TIME ( #209, #23 ) ;
#191 = CARTESIAN_POINT ( 'NONE',  ( -4.644075297897137800E-015, -8.881784197001250400E-016, 4.000000000000000000 ) ) ;
#192 =( GEOMETRIC_REPRESENTATION_CONTEXT ( 3 ) GLOBAL_UNCERTAINTY_ASSIGNED_CONTEXT ( ( #78 ) ) GLOBAL_UNIT_ASSIGNED_CONTEXT ( ( #145, #189, #52 ) ) REPRESENTATION_CONTEXT ( 'NONE', 'WORKASPACE' ) );
#193 = ORIENTED_EDGE ( 'NONE', *, *, #132, .T. ) ;
#194 = PERSON_AND_ORGANIZATION ( #43, #1 ) ;
#195 = DATE_TIME_ROLE ( 'creation_date' ) ;
#196 = CC_DESIGN_APPROVAL ( #72, ( #212 ) ) ;
#197 = PERSON_AND_ORGANIZATION ( #43, #1 ) ;
#198 = CARTESIAN_POINT ( 'NONE',  ( 19.04999999999999700, -8.881784197001250400E-016, 0.7636252595314999600 ) ) ;
#199 = AXIS2_PLACEMENT_3D ( 'NONE', #110, #163, #71 ) ;
#200 = FACE_OUTER_BOUND ( 'NONE', #129, .T. ) ;
#201 = CARTESIAN_POINT ( 'NONE',  ( 6.403694570179334600, -6.440141821110752400, -0.2612563553462854400 ) ) ;
#202 = AXIS2_PLACEMENT_3D ( 'NONE', #167, #149, #5 ) ;
#203 = CARTESIAN_POINT ( 'NONE',  ( -4.662936703425659800E-015, -8.881784197001250400E-016, 0.7636252595314999600 ) ) ;
#204 = CALENDAR_DATE ( 2018, 13, 12 ) ;
#205 = ADVANCED_FACE ( 'NONE', ( #82 ), #85, .T. ) ;
#206 = DIRECTION ( 'NONE',  ( 1.000000000000000000, 0.0000000000000000000, 0.0000000000000000000 ) ) ;
#207 = CC_DESIGN_SECURITY_CLASSIFICATION ( #66, ( #87 ) ) ;
#208 = PERSON_AND_ORGANIZATION ( #43, #1 ) ;
#209 = CALENDAR_DATE ( 2018, 13, 12 ) ;
#210 = PERSON_AND_ORGANIZATION_ROLE ( 'creator' ) ;
#211 = ORIENTED_EDGE ( 'NONE', *, *, #118, .T. ) ;
#212 = PRODUCT_DEFINITION ( 'UNKNOWN', '', #87, #103 ) ;
#213 = CARTESIAN_POINT ( 'NONE',  ( -12.74612989373607700, 19.27810171046781900, 1.038948498776135500 ) ) ;
#214 = CC_DESIGN_PERSON_AND_ORGANIZATION_ASSIGNMENT ( #119, #25, ( #234 ) ) ;
#215 = ORIENTED_EDGE ( 'NONE', *, *, #97, .T. ) ;
#216 = DIRECTION ( 'NONE',  ( -5.827942386483759700E-018, -2.717192996813919900E-034, -1.000000000000000000 ) ) ;
#217 = CARTESIAN_POINT ( 'NONE',  ( -19.18508975342862000, 6.440141821110760400, 0.5124032477044698800 ) ) ;
#218 = CARTESIAN_POINT ( 'NONE',  ( 0.0000000000000000000, 39.06600000000000300, 4.000000000000000000 ) ) ;
#219 = PERSON_AND_ORGANIZATION ( #43, #1 ) ;
#220 = CARTESIAN_POINT ( 'NONE',  ( 12.80218865959942300, -6.440141821110751500, -0.003230124509471100300 ) ) ;
#221 = CARTESIAN_POINT ( 'NONE',  ( 19.10108126994528600, -19.27810171046780500, 1.552323993743198100 ) ) ;
#222 = DIRECTION ( 'NONE',  ( -5.827942386483759700E-018, -2.717192996813919900E-034, -1.000000000000000000 ) ) ;
#223 = DIRECTION ( 'NONE',  ( -5.827942386483759700E-018, -2.717192996813919900E-034, -1.000000000000000000 ) ) ;
#224 = CC_DESIGN_APPROVAL ( #154, ( #87 ) ) ;
#225 = DIRECTION ( 'NONE',  ( 1.000000000000000000, 0.0000000000000000000, -5.691349986800548400E-018 ) ) ;
#226 = CYLINDRICAL_SURFACE ( 'NONE', #38, 19.05000000000000100 ) ;
#227 = APPROVAL_STATUS ( 'not_yet_approved' ) ;
#228 = APPROVAL_ROLE ( '' ) ;
#229 = APPROVAL_DATE_TIME ( #190, #128 ) ;
#230 = EDGE_LOOP ( 'NONE', ( #161, #98 ) ) ;
#231 = EDGE_CURVE ( 'NONE', #24, #134, #64, .T. ) ;
#232 = EDGE_LOOP ( 'NONE', ( #94, #215, #46 ) ) ;
#233 = CARTESIAN_POINT ( 'NONE',  ( 19.04999999999999700, -8.881784197001250400E-016, 4.000000000000000000 ) ) ;
#234 = PRODUCT ( '110-1435E UVFS pl-cx 38.1 F500', '110-1435E UVFS pl-cx 38.1 F500', '', ( #187 ) ) ;
#235 = DIRECTION ( 'NONE',  ( 1.000000000000000000, 0.0000000000000000000, -5.691349986800548400E-018 ) ) ;
ENDSEC;
END-ISO-10303-21;
