ISO-10303-21;
HEADER;
FILE_DESCRIPTION (( 'STEP AP203' ),
    '1' );
FILE_NAME ('110-1431E UVFS pl-cx 38.1 F400.STEP',
    '2018-12-13T15:05:11',
    ( '' ),
    ( '' ),
    'SwSTEP 2.0',
    'SolidWorks 2017',
    '' );
FILE_SCHEMA (( 'CONFIG_CONTROL_DESIGN' ));
ENDSEC;

DATA;
#1 = AXIS2_PLACEMENT_3D ( 'NONE', #40, #160, #174 ) ;
#2 = CARTESIAN_POINT ( 'NONE',  ( -4.662936703425659800E-015, -8.881784197001250400E-016, 0.9553972793101670500 ) ) ;
#3 = CARTESIAN_POINT ( 'NONE',  ( -19.19685354243290800, -6.448030577627426000, 0.6412792279088708200 ) ) ;
#4 = CARTESIAN_POINT ( 'NONE',  ( 12.72915214590713800, 19.27782029597827000, 1.299355719756769800 ) ) ;
#5 = CC_DESIGN_APPROVAL ( #189, ( #206 ) ) ;
#6 = CARTESIAN_POINT ( 'NONE',  ( -4.263256414560600500E-014, 6.448030577627387000, -0.3272694057932915600 ) ) ;
#7 = PERSON_AND_ORGANIZATION ( #85, #191 ) ;
#8 = ORIENTED_EDGE ( 'NONE', *, *, #196, .F. ) ;
#9 = CARTESIAN_POINT ( 'NONE',  ( -6.368621273146549900, 19.27782029597827000, 0.9784446145687963900 ) ) ;
#10 = CARTESIAN_POINT ( 'NONE',  ( -8.673617379884035500E-014, 19.27782029597826600, 0.9784446145687951700 ) ) ;
#11 = CC_DESIGN_APPROVAL ( #224, ( #103 ) ) ;
#12 = ORIENTED_EDGE ( 'NONE', *, *, #107, .F. ) ;
#13 = DIRECTION ( 'NONE',  ( -0.0000000000000000000, -0.0000000000000000000, -1.000000000000000000 ) ) ;
#14 = CARTESIAN_POINT ( 'NONE',  ( -8.673617379884036700E-014, 6.448030577627387000, -0.3272694057933320200 ) ) ;
#15 = SHAPE_DEFINITION_REPRESENTATION ( #22, #112 ) ;
#16 = ORIENTED_EDGE ( 'NONE', *, *, #233, .F. ) ;
#17 = AXIS2_PLACEMENT_3D ( 'NONE', #60, #109, #218 ) ;
#18 = CC_DESIGN_PERSON_AND_ORGANIZATION_ASSIGNMENT ( #134, #148, ( #206 ) ) ;
#19 = UNCERTAINTY_MEASURE_WITH_UNIT (LENGTH_MEASURE( 1.000000000000000100E-005 ), #117, 'distance_accuracy_value', 'NONE');
#20 = VECTOR ( 'NONE', #110, 1000.000000000000000 ) ;
#21 = ADVANCED_FACE ( 'NONE', ( #44 ), #70, .T. ) ;
#22 = PRODUCT_DEFINITION_SHAPE ( 'NONE', 'NONE',  #206 ) ;
#23 = CARTESIAN_POINT ( 'NONE',  ( -4.263256414560599900E-014, 19.04999999999985900, 0.9553972793101611600 ) ) ;
#24 = CIRCLE ( 'NONE', #17, 190.4000000000000100 ) ;
#25 = DIRECTION ( 'NONE',  ( 0.0000000000000000000, 0.0000000000000000000, 1.000000000000000000 ) ) ;
#26 = CARTESIAN_POINT ( 'NONE',  ( 19.04999999999999700, -8.881784197001250400E-016, 0.9553972793101670500 ) ) ;
#27 = APPROVAL_ROLE ( '' ) ;
#28 = DIRECTION ( 'NONE',  ( 0.0000000000000000000, 0.0000000000000000000, 1.000000000000000000 ) ) ;
#29 = APPROVAL_STATUS ( 'not_yet_approved' ) ;
#30 = CC_DESIGN_DATE_AND_TIME_ASSIGNMENT ( #33, #133, ( #86 ) ) ;
#31 = PERSON_AND_ORGANIZATION ( #85, #191 ) ;
#32 = DATE_AND_TIME ( #35, #181 ) ;
#33 = DATE_AND_TIME ( #123, #226 ) ;
#34 = ORIENTED_EDGE ( 'NONE', *, *, #38, .T. ) ;
#35 = CALENDAR_DATE ( 2018, 13, 12 ) ;
#36 = DIRECTION ( 'NONE',  ( 0.0000000000000000000, 0.0000000000000000000, 1.000000000000000000 ) ) ;
#37 = DIRECTION ( 'NONE',  ( 0.0000000000000000000, 0.0000000000000000000, 1.000000000000000000 ) ) ;
#38 = EDGE_CURVE ( 'NONE', #171, #120, #186, .T. ) ;
#39 = ADVANCED_FACE ( 'NONE', ( #93 ), #157, .T. ) ;
#40 = CARTESIAN_POINT ( 'NONE',  ( -4.662936703425659800E-015, -8.881784197001250400E-016, 0.9553972793101670500 ) ) ;
#41 = LOCAL_TIME ( 17, 5, 10.00000000000000000, #187 ) ;
#42 = CARTESIAN_POINT ( 'NONE',  ( 6.412521229884789300, 6.448030577627387800, -0.3272694057932916700 ) ) ;
#43 = FACE_OUTER_BOUND ( 'NONE', #105, .T. ) ;
#44 = FACE_OUTER_BOUND ( 'NONE', #198, .T. ) ;
#45 = APPROVAL_STATUS ( 'not_yet_approved' ) ;
#46 = CARTESIAN_POINT ( 'NONE',  ( -4.662936703425659800E-015, -8.881784197001250400E-016, 0.9553972793101670500 ) ) ;
#47 = APPROVAL_STATUS ( 'not_yet_approved' ) ;
#48 = PRODUCT_RELATED_PRODUCT_CATEGORY ( 'detail', '', ( #51 ) ) ;
#49 = CYLINDRICAL_SURFACE ( 'NONE', #147, 19.05000000000000100 ) ;
#50 = COORDINATED_UNIVERSAL_TIME_OFFSET ( 2, 0, .AHEAD. ) ;
#51 = PRODUCT ( '110-1431E UVFS pl-cx 38.1 F400', '110-1431E UVFS pl-cx 38.1 F400', '', ( #111 ) ) ;
#52 = EDGE_CURVE ( 'NONE', #205, #139, #210, .T. ) ;
#53 = ORIENTED_EDGE ( 'NONE', *, *, #233, .T. ) ;
#54 = CARTESIAN_POINT ( 'NONE',  ( -4.662936703425659800E-015, -8.881784197001250400E-016, 0.9553972793101670500 ) ) ;
#55 = FACE_OUTER_BOUND ( 'NONE', #155, .T. ) ;
#56 =( GEOMETRIC_REPRESENTATION_CONTEXT ( 3 ) GLOBAL_UNCERTAINTY_ASSIGNED_CONTEXT ( ( #19 ) ) GLOBAL_UNIT_ASSIGNED_CONTEXT ( ( #117, #132, #208 ) ) REPRESENTATION_CONTEXT ( 'NONE', 'WORKASPACE' ) );
#57 = DIRECTION ( 'NONE',  ( -0.0000000000000000000, -0.0000000000000000000, -1.000000000000000000 ) ) ;
#58 = CARTESIAN_POINT ( 'NONE',  ( 0.0000000000000000000, 39.06600000000000300, 4.000000000000000000 ) ) ;
#59 = CARTESIAN_POINT ( 'NONE',  ( -4.662936703425659800E-015, -8.881784197001250400E-016, 4.000000000000000000 ) ) ;
#60 = CARTESIAN_POINT ( 'NONE',  ( -4.263256414560599900E-014, -5.684341886080800200E-014, 190.4000000000000100 ) ) ;
#61 = CARTESIAN_POINT ( 'NONE',  ( 12.72915214590713400, -19.27782029597830500, 1.299355719756769800 ) ) ;
#62 = MANIFOLD_SOLID_BREP ( 'Imported1', #156 ) ;
#63 = DIRECTION ( 'NONE',  ( -0.0000000000000000000, -0.0000000000000000000, -1.000000000000000000 ) ) ;
#64 = ORIENTED_EDGE ( 'NONE', *, *, #38, .F. ) ;
#65 = DIRECTION ( 'NONE',  ( 1.000000000000000000, 0.0000000000000000000, 0.0000000000000000000 ) ) ;
#66 = LINE ( 'NONE', #26, #76 ) ;
#67 = VERTEX_POINT ( 'NONE', #199 ) ;
#68 = ORIENTED_EDGE ( 'NONE', *, *, #52, .F. ) ;
#69 = AXIS2_PLACEMENT_3D ( 'NONE', #2, #63, #179 ) ;
#70 = CYLINDRICAL_SURFACE ( 'NONE', #190, 19.05000000000000100 ) ;
#71 = ORIENTED_EDGE ( 'NONE', *, *, #219, .F. ) ;
#72 = CARTESIAN_POINT ( 'NONE',  ( 19.06543237284725800, -19.27782029597830500, 1.940362589035124400 ) ) ;
#73 = CARTESIAN_POINT ( 'NONE',  ( -4.662936703425659800E-015, -8.881784197001250400E-016, 0.9553972793101670500 ) ) ;
#74 = APPROVAL_DATE_TIME ( #121, #224 ) ;
#75 = DIRECTION ( 'NONE',  ( -0.0000000000000000000, -0.0000000000000000000, -1.000000000000000000 ) ) ;
#76 = VECTOR ( 'NONE', #200, 1000.000000000000000 ) ;
#77 = CC_DESIGN_DATE_AND_TIME_ASSIGNMENT ( #32, #149, ( #206 ) ) ;
#78 = CARTESIAN_POINT ( 'NONE',  ( 19.06543237284726200, 19.27782029597826600, 1.940362589035124600 ) ) ;
#79 = PERSON_AND_ORGANIZATION_ROLE ( 'design_owner' ) ;
#80 = COORDINATED_UNIVERSAL_TIME_OFFSET ( 2, 0, .AHEAD. ) ;
#81 = DIRECTION ( 'NONE',  ( -0.0000000000000000000, -0.0000000000000000000, -1.000000000000000000 ) ) ;
#82 = APPROVAL_ROLE ( '' ) ;
#83 = APPROVAL_DATE_TIME ( #230, #189 ) ;
#84 = PERSON_AND_ORGANIZATION ( #85, #191 ) ;
#85 = PERSON ( 'UNSPECIFIED', 'UNSPECIFIED', 'UNSPECIFIED', ('UNSPECIFIED'), ('UNSPECIFIED'), ('UNSPECIFIED') ) ;
#86 = SECURITY_CLASSIFICATION ( '', '', #229 ) ;
#87 = CIRCLE ( 'NONE', #69, 19.05000000000000100 ) ;
#88 = DIRECTION ( 'NONE',  ( 1.000000000000000000, 0.0000000000000000000, -0.0000000000000000000 ) ) ;
#89 = APPROVAL_PERSON_ORGANIZATION ( #221, #224, #82 ) ;
#90 = CARTESIAN_POINT ( 'NONE',  ( -4.662936703425659800E-015, -8.881784197001250400E-016, 4.000000000000000000 ) ) ;
#91 = CARTESIAN_POINT ( 'NONE',  ( 19.19685354243294700, 6.448030577627386100, 0.6412792279089191100 ) ) ;
#92 = CARTESIAN_POINT ( 'NONE',  ( -12.72915214590715400, -19.27782029597830500, 1.299355719756727400 ) ) ;
#93 = FACE_OUTER_BOUND ( 'NONE', #235, .T. ) ;
#94 = CARTESIAN_POINT ( 'NONE',  ( 19.19685354243294700, -6.448030577627426900, 0.6412792279089238900 ) ) ;
#95 = CARTESIAN_POINT ( 'NONE',  ( -19.06543237284722300, -19.27782029597830500, 1.940362589035071700 ) ) ;
#96 = PERSON_AND_ORGANIZATION_ROLE ( 'classification_officer' ) ;
#97 = APPLICATION_PROTOCOL_DEFINITION ( 'international standard', 'config_control_design', 1994, #165 ) ;
#98 = PERSON_AND_ORGANIZATION_ROLE ( 'creator' ) ;
#99 = ORIENTED_EDGE ( 'NONE', *, *, #176, .F. ) ;
#100 = EDGE_CURVE ( 'NONE', #120, #171, #169, .T. ) ;
#101 = PERSON_AND_ORGANIZATION_ROLE ( 'design_supplier' ) ;
#102 = ORIENTED_EDGE ( 'NONE', *, *, #184, .T. ) ;
#103 = PRODUCT_DEFINITION_FORMATION_WITH_SPECIFIED_SOURCE ( 'ANY', '', #51, .NOT_KNOWN. ) ;
#104 = VERTEX_POINT ( 'NONE', #234 ) ;
#105 = EDGE_LOOP ( 'NONE', ( #8, #16, #71, #213, #164 ) ) ;
#106 = CARTESIAN_POINT ( 'NONE',  ( -4.263256414560599900E-014, 19.27782029597826600, 0.9784446145688352500 ) ) ;
#107 = EDGE_CURVE ( 'NONE', #104, #205, #24, .T. ) ;
#108 = CARTESIAN_POINT ( 'NONE',  ( -8.673617379884035500E-014, -19.27782029597830500, 0.9784446145687951700 ) ) ;
#109 = DIRECTION ( 'NONE',  ( 1.000000000000000000, 0.0000000000000000000, 0.0000000000000000000 ) ) ;
#110 = DIRECTION ( 'NONE',  ( 0.0000000000000000000, 0.0000000000000000000, 1.000000000000000000 ) ) ;
#111 = MECHANICAL_CONTEXT ( 'NONE', #165, 'mechanical' ) ;
#112 = ADVANCED_BREP_SHAPE_REPRESENTATION ( '110-1431E UVFS pl-cx 38.1 F400', ( #62, #113 ), #56 ) ;
#113 = AXIS2_PLACEMENT_3D ( 'NONE', #131, #28, #203 ) ;
#114 = ORIENTED_EDGE ( 'NONE', *, *, #184, .F. ) ;
#115 = CARTESIAN_POINT ( 'NONE',  ( -8.673617379884036700E-014, -6.448030577627426000, -0.3272694057933267000 ) ) ;
#116 = CARTESIAN_POINT ( 'NONE',  ( -19.19685354243290800, 6.448030577627387000, 0.6412792279088658200 ) ) ;
#117 =( LENGTH_UNIT ( ) NAMED_UNIT ( * ) SI_UNIT ( .MILLI., .METRE. ) );
#118 = ORIENTED_EDGE ( 'NONE', *, *, #196, .T. ) ;
#119 = AXIS2_PLACEMENT_3D ( 'NONE', #46, #81, #65 ) ;
#120 = VERTEX_POINT ( 'NONE', #128 ) ;
#121 = DATE_AND_TIME ( #231, #170 ) ;
#122 = CIRCLE ( 'NONE', #119, 19.05000000000000100 ) ;
#123 = CALENDAR_DATE ( 2018, 13, 12 ) ;
#124 = CARTESIAN_POINT ( 'NONE',  ( -4.263256414560600500E-014, -6.448030577627426000, -0.3272694057932866700 ) ) ;
#125 = ADVANCED_FACE ( 'NONE', ( #175 ), #222, .T. ) ;
#126 = CC_DESIGN_PERSON_AND_ORGANIZATION_ASSIGNMENT ( #84, #101, ( #103 ) ) ;
#127 = APPROVAL_PERSON_ORGANIZATION ( #7, #189, #27 ) ;
#128 = CARTESIAN_POINT ( 'NONE',  ( 19.04999999999999700, -8.881784197001250400E-016, 4.000000000000000000 ) ) ;
#129 = PERSON_AND_ORGANIZATION ( #85, #191 ) ;
#130 = CC_DESIGN_PERSON_AND_ORGANIZATION_ASSIGNMENT ( #31, #96, ( #86 ) ) ;
#131 = CARTESIAN_POINT ( 'NONE',  ( 0.0000000000000000000, 0.0000000000000000000, 0.0000000000000000000 ) ) ;
#132 =( NAMED_UNIT ( * ) PLANE_ANGLE_UNIT ( ) SI_UNIT ( $, .RADIAN. ) );
#133 = DATE_TIME_ROLE ( 'classification_date' ) ;
#134 = PERSON_AND_ORGANIZATION ( #85, #191 ) ;
#135 = DATE_AND_TIME ( #162, #193 ) ;
#136 = CC_DESIGN_PERSON_AND_ORGANIZATION_ASSIGNMENT ( #161, #79, ( #51 ) ) ;
#137 = AXIS2_PLACEMENT_3D ( 'NONE', #90, #57, #173 ) ;
#138 = CALENDAR_DATE ( 2018, 13, 12 ) ;
#139 = VERTEX_POINT ( 'NONE', #197 ) ;
#140 = APPROVAL_DATE_TIME ( #135, #232 ) ;
#141 = DIRECTION ( 'NONE',  ( 1.000000000000000000, 0.0000000000000000000, 0.0000000000000000000 ) ) ;
#142 = CARTESIAN_POINT ( 'NONE',  ( -6.368621273146549900, -19.27782029597830500, 0.9784446145687963900 ) ) ;
#143 = ORIENTED_EDGE ( 'NONE', *, *, #52, .T. ) ;
#144 = CARTESIAN_POINT ( 'NONE',  ( -4.263256414560599900E-014, -19.27782029597830500, 0.9784446145688352500 ) ) ;
#145 = CARTESIAN_POINT ( 'NONE',  ( 12.81689629091964000, 6.448030577627387000, -0.004146207433166357700 ) ) ;
#146 = CARTESIAN_POINT ( 'NONE',  ( 6.368621273146477100, 19.27782029597827000, 0.9784446145688349100 ) ) ;
#147 = AXIS2_PLACEMENT_3D ( 'NONE', #73, #25, #202 ) ;
#148 = PERSON_AND_ORGANIZATION_ROLE ( 'creator' ) ;
#149 = DATE_TIME_ROLE ( 'creation_date' ) ;
#150 = APPROVAL_PERSON_ORGANIZATION ( #215, #232, #152 ) ;
#151 = CARTESIAN_POINT ( 'NONE',  ( -12.81689629091966300, -6.448030577627426900, -0.004146207433204630900 ) ) ;
#152 = APPROVAL_ROLE ( '' ) ;
#153 = AXIS2_PLACEMENT_3D ( 'NONE', #58, #37, #88 ) ;
#154 = CIRCLE ( 'NONE', #214, 19.05000000000000100 ) ;
#155 = EDGE_LOOP ( 'NONE', ( #12, #53, #102 ) ) ;
#156 = CLOSED_SHELL ( 'NONE', ( #125, #21, #216, #194, #39 ) ) ;
#157 = PLANE ( 'NONE',  #153 ) ;
#158 = ORIENTED_EDGE ( 'NONE', *, *, #107, .T. ) ;
#159 = DIRECTION ( 'NONE',  ( 1.000000000000000000, 0.0000000000000000000, 0.0000000000000000000 ) ) ;
#160 = DIRECTION ( 'NONE',  ( -0.0000000000000000000, -0.0000000000000000000, -1.000000000000000000 ) ) ;
#161 = PERSON_AND_ORGANIZATION ( #85, #191 ) ;
#162 = CALENDAR_DATE ( 2018, 13, 12 ) ;
#163 = CARTESIAN_POINT ( 'NONE',  ( -4.662936703425659800E-015, -8.881784197001250400E-016, 0.9553972793101670500 ) ) ;
#164 = ORIENTED_EDGE ( 'NONE', *, *, #100, .T. ) ;
#165 = APPLICATION_CONTEXT ( 'configuration controlled 3d designs of mechanical parts and assemblies' ) ;
#166 = CARTESIAN_POINT ( 'NONE',  ( -19.06543237284722300, 19.27782029597826600, 1.940362589035071700 ) ) ;
#167 = CARTESIAN_POINT ( 'NONE',  ( -12.72915214590715400, 19.27782029597827000, 1.299355719756727400 ) ) ;
#168 = COORDINATED_UNIVERSAL_TIME_OFFSET ( 2, 0, .AHEAD. ) ;
#169 = CIRCLE ( 'NONE', #209, 19.05000000000000100 ) ;
#170 = LOCAL_TIME ( 17, 5, 10.00000000000000000, #80 ) ;
#171 = VERTEX_POINT ( 'NONE', #217 ) ;
#172 = LINE ( 'NONE', #223, #20 ) ;
#173 = DIRECTION ( 'NONE',  ( 1.000000000000000000, 0.0000000000000000000, 0.0000000000000000000 ) ) ;
#174 = DIRECTION ( 'NONE',  ( 1.000000000000000000, 8.881784197001252300E-016, 0.0000000000000000000 ) ) ;
#175 = FACE_OUTER_BOUND ( 'NONE', #192, .T. ) ;
#176 = EDGE_CURVE ( 'NONE', #139, #120, #66, .T. ) ;
#177 = CARTESIAN_POINT ( 'NONE',  ( 6.368621273146477100, -19.27782029597830500, 0.9784446145688349100 ) ) ;
#178 = CARTESIAN_POINT ( 'NONE',  ( 12.81689629091964200, -6.448030577627427800, -0.004146207433161587200 ) ) ;
#179 = DIRECTION ( 'NONE',  ( 1.000000000000000000, 0.0000000000000000000, 0.0000000000000000000 ) ) ;
#180 = CARTESIAN_POINT ( 'NONE',  ( -6.412521229884861300, 6.448030577627387800, -0.3272694057933305300 ) ) ;
#181 = LOCAL_TIME ( 17, 5, 10.00000000000000000, #168 ) ;
#182 = CC_DESIGN_PERSON_AND_ORGANIZATION_ASSIGNMENT ( #129, #98, ( #103 ) ) ;
#183 = CARTESIAN_POINT ( 'NONE',  ( -12.81689629091965800, 6.448030577627387800, -0.004146207433209617300 ) ) ;
#184 = EDGE_CURVE ( 'NONE', #67, #205, #87, .T. ) ;
#185 = APPLICATION_CONTEXT ( 'configuration controlled 3d designs of mechanical parts and assemblies' ) ;
#186 = CIRCLE ( 'NONE', #137, 19.05000000000000100 ) ;
#187 = COORDINATED_UNIVERSAL_TIME_OFFSET ( 2, 0, .AHEAD. ) ;
#188 = ORIENTED_EDGE ( 'NONE', *, *, #100, .F. ) ;
#189 = APPROVAL ( #45, 'UNSPECIFIED' ) ;
#190 = AXIS2_PLACEMENT_3D ( 'NONE', #54, #36, #141 ) ;
#191 = ORGANIZATION ( 'UNSPECIFIED', 'UNSPECIFIED', '' ) ;
#192 = EDGE_LOOP ( 'NONE', ( #227, #158, #143 ) ) ;
#193 = LOCAL_TIME ( 17, 5, 10.00000000000000000, #50 ) ;
#194 = ADVANCED_FACE ( 'NONE', ( #43 ), #49, .T. ) ;
#195 = CC_DESIGN_SECURITY_CLASSIFICATION ( #86, ( #103 ) ) ;
#196 = EDGE_CURVE ( 'NONE', #67, #171, #172, .T. ) ;
#197 = CARTESIAN_POINT ( 'NONE',  ( 19.04999999999999700, -8.881784197001250400E-016, 0.9553972793101670500 ) ) ;
#198 = EDGE_LOOP ( 'NONE', ( #114, #118, #34, #99, #68 ) ) ;
#199 = CARTESIAN_POINT ( 'NONE',  ( -19.05000000000000400, 1.444773732675583000E-015, 0.9553972793101670500 ) ) ;
#200 = DIRECTION ( 'NONE',  ( 0.0000000000000000000, 0.0000000000000000000, 1.000000000000000000 ) ) ;
#201 =( BOUNDED_SURFACE ( )  B_SPLINE_SURFACE ( 3, 3, ( 
 ( #95, #92, #142, #108 ),
 ( #3, #151, #207, #115 ),
 ( #116, #183, #180, #14 ),
 ( #166, #167, #9, #10 ) ),
 .UNSPECIFIED., .F., .F., .T. ) 
 B_SPLINE_SURFACE_WITH_KNOTS ( ( 4, 4 ),
 ( 4, 4 ),
 ( 0.0000000000000000000, 1.000000000000000000 ),
 ( 0.0000000000000000000, 1.000000000000000000 ),
 .UNSPECIFIED. ) 
 GEOMETRIC_REPRESENTATION_ITEM ( )  RATIONAL_B_SPLINE_SURFACE ( (
 ( 1.000000000000000000, 0.9991530976602449600, 0.9991530976602449600, 1.000000000000000000),
 ( 0.9965740734784003200, 0.9957300725638322800, 0.9957300725638322800, 0.9965740734784003200),
 ( 0.9965740734784003200, 0.9957300725638322800, 0.9957300725638322800, 0.9965740734784003200),
 ( 1.000000000000000000, 0.9991530976602449600, 0.9991530976602449600, 1.000000000000000000) ) ) 
 REPRESENTATION_ITEM ( '' )  SURFACE ( )  );
#202 = DIRECTION ( 'NONE',  ( 1.000000000000000000, 0.0000000000000000000, 0.0000000000000000000 ) ) ;
#203 = DIRECTION ( 'NONE',  ( 1.000000000000000000, 0.0000000000000000000, 0.0000000000000000000 ) ) ;
#204 = DIRECTION ( 'NONE',  ( 1.000000000000000000, 0.0000000000000000000, 0.0000000000000000000 ) ) ;
#205 = VERTEX_POINT ( 'NONE', #23 ) ;
#206 = PRODUCT_DEFINITION ( 'UNKNOWN', '', #103, #225 ) ;
#207 = CARTESIAN_POINT ( 'NONE',  ( -6.412521229884861300, -6.448030577627426900, -0.3272694057933252500 ) ) ;
#208 =( NAMED_UNIT ( * ) SI_UNIT ( $, .STERADIAN. ) SOLID_ANGLE_UNIT ( ) );
#209 = AXIS2_PLACEMENT_3D ( 'NONE', #59, #75, #159 ) ;
#210 = CIRCLE ( 'NONE', #1, 19.05000000000000100 ) ;
#211 = CC_DESIGN_APPROVAL ( #232, ( #86 ) ) ;
#212 = COORDINATED_UNIVERSAL_TIME_OFFSET ( 2, 0, .AHEAD. ) ;
#213 = ORIENTED_EDGE ( 'NONE', *, *, #176, .T. ) ;
#214 = AXIS2_PLACEMENT_3D ( 'NONE', #163, #13, #204 ) ;
#215 = PERSON_AND_ORGANIZATION ( #85, #191 ) ;
#216 = ADVANCED_FACE ( 'NONE', ( #55 ), #201, .T. ) ;
#217 = CARTESIAN_POINT ( 'NONE',  ( -19.05000000000000400, 1.444773732675583000E-015, 4.000000000000000000 ) ) ;
#218 = DIRECTION ( 'NONE',  ( 0.0000000000000000000, -1.000000000000000000, -5.831003280594309600E-016 ) ) ;
#219 = EDGE_CURVE ( 'NONE', #139, #104, #122, .T. ) ;
#220 = CARTESIAN_POINT ( 'NONE',  ( 6.412521229884789300, -6.448030577627426900, -0.3272694057932866200 ) ) ;
#221 = PERSON_AND_ORGANIZATION ( #85, #191 ) ;
#222 =( BOUNDED_SURFACE ( )  B_SPLINE_SURFACE ( 3, 3, ( 
 ( #144, #177, #61, #72 ),
 ( #124, #220, #178, #94 ),
 ( #6, #42, #145, #91 ),
 ( #106, #146, #4, #78 ) ),
 .UNSPECIFIED., .F., .F., .T. ) 
 B_SPLINE_SURFACE_WITH_KNOTS ( ( 4, 4 ),
 ( 4, 4 ),
 ( 0.0000000000000000000, 1.000000000000000000 ),
 ( 0.0000000000000000000, 1.000000000000000000 ),
 .UNSPECIFIED. ) 
 GEOMETRIC_REPRESENTATION_ITEM ( )  RATIONAL_B_SPLINE_SURFACE ( (
 ( 1.000000000000000000, 0.9991530976602449600, 0.9991530976602449600, 1.000000000000000000),
 ( 0.9965740734784003200, 0.9957300725638322800, 0.9957300725638322800, 0.9965740734784003200),
 ( 0.9965740734784003200, 0.9957300725638322800, 0.9957300725638322800, 0.9965740734784003200),
 ( 1.000000000000000000, 0.9991530976602449600, 0.9991530976602449600, 1.000000000000000000) ) ) 
 REPRESENTATION_ITEM ( '' )  SURFACE ( )  );
#223 = CARTESIAN_POINT ( 'NONE',  ( -19.05000000000000400, 1.444773732675583000E-015, 0.9553972793101670500 ) ) ;
#224 = APPROVAL ( #47, 'UNSPECIFIED' ) ;
#225 = DESIGN_CONTEXT ( 'detailed design', #185, 'design' ) ;
#226 = LOCAL_TIME ( 17, 5, 10.00000000000000000, #212 ) ;
#227 = ORIENTED_EDGE ( 'NONE', *, *, #219, .T. ) ;
#228 = APPLICATION_PROTOCOL_DEFINITION ( 'international standard', 'config_control_design', 1994, #185 ) ;
#229 = SECURITY_CLASSIFICATION_LEVEL ( 'unclassified' ) ;
#230 = DATE_AND_TIME ( #138, #41 ) ;
#231 = CALENDAR_DATE ( 2018, 13, 12 ) ;
#232 = APPROVAL ( #29, 'UNSPECIFIED' ) ;
#233 = EDGE_CURVE ( 'NONE', #104, #67, #154, .T. ) ;
#234 = CARTESIAN_POINT ( 'NONE',  ( -4.263256414560599900E-014, -19.04999999999990800, 0.9553972793101611600 ) ) ;
#235 = EDGE_LOOP ( 'NONE', ( #188, #64 ) ) ;
ENDSEC;
END-ISO-10303-21;
