ISO-10303-21;
HEADER;
FILE_DESCRIPTION (( 'STEP AP203' ),
    '1' );
FILE_NAME ('110-1423E UVFS pl-cx 38.1 F250.STEP',
    '2018-12-13T15:05:30',
    ( '' ),
    ( '' ),
    'SwSTEP 2.0',
    'SolidWorks 2017',
    '' );
FILE_SCHEMA (( 'CONFIG_CONTROL_DESIGN' ));
ENDSEC;

DATA;
#1 = DIRECTION ( 'NONE',  ( 2.441897141834630300E-016, -1.000000000000000000, -4.664802624475447800E-016 ) ) ;
#2 = FACE_OUTER_BOUND ( 'NONE', #226, .T. ) ;
#3 = DIRECTION ( 'NONE',  ( 1.165588477296749900E-017, 5.434385993627839900E-034, 1.000000000000000000 ) ) ;
#4 = EDGE_CURVE ( 'NONE', #51, #146, #57, .T. ) ;
#5 = CARTESIAN_POINT ( 'NONE',  ( 6.451233808133919100, 6.482608941915376700, -0.5285432693019922500 ) ) ;
#6 = CARTESIAN_POINT ( 'NONE',  ( 19.04999999999999700, -8.881784197001250400E-016, 1.534696612148490000 ) ) ;
#7 = PRODUCT_DEFINITION_SHAPE ( 'NONE', 'NONE',  #115 ) ;
#8 = DIRECTION ( 'NONE',  ( 1.165588477296749900E-017, 5.434385993627839900E-034, 1.000000000000000000 ) ) ;
#9 = VECTOR ( 'NONE', #166, 1000.000000000000000 ) ;
#10 = PERSON_AND_ORGANIZATION_ROLE ( 'design_owner' ) ;
#11 = APPROVAL_ROLE ( '' ) ;
#12 = APPROVAL_PERSON_ORGANIZATION ( #200, #160, #201 ) ;
#13 = ORIENTED_EDGE ( 'NONE', *, *, #52, .T. ) ;
#14 = CALENDAR_DATE ( 2018, 13, 12 ) ;
#15 = VERTEX_POINT ( 'NONE', #78 ) ;
#16 = DIRECTION ( 'NONE',  ( 1.000000000000000000, 0.0000000000000000000, -1.138269997360109700E-017 ) ) ;
#17 = DIRECTION ( 'NONE',  ( -1.165588477296749900E-017, -5.434385993627839900E-034, -1.000000000000000000 ) ) ;
#18 = CARTESIAN_POINT ( 'NONE',  ( 0.0000000000000000000, 6.482608941915376700, -0.5285432693019832500 ) ) ;
#19 = ORIENTED_EDGE ( 'NONE', *, *, #189, .T. ) ;
#20 = CARTESIAN_POINT ( 'NONE',  ( 0.0000000000000000000, 39.06600000000000300, 4.000000000000000000 ) ) ;
#21 = CARTESIAN_POINT ( 'NONE',  ( -6.451233808133906700, 6.482608941915372300, -0.5285432693019818100 ) ) ;
#22 = CARTESIAN_POINT ( 'NONE',  ( 6.337880485792672000, 19.27659131991039500, 1.571668550195471000 ) ) ;
#23 = DATE_AND_TIME ( #14, #217 ) ;
#24 = CARTESIAN_POINT ( 'NONE',  ( -6.337880485792672000, 19.27659131991039500, 1.571668550195481000 ) ) ;
#25 = ADVANCED_BREP_SHAPE_REPRESENTATION ( '110-1423E UVFS pl-cx 38.1 F250', ( #92, #183 ), #87 ) ;
#26 = APPROVAL_DATE_TIME ( #90, #95 ) ;
#27 = AXIS2_PLACEMENT_3D ( 'NONE', #223, #177, #46 ) ;
#28 = PERSON_AND_ORGANIZATION_ROLE ( 'design_supplier' ) ;
#29 = PRODUCT_DEFINITION_FORMATION_WITH_SPECIFIED_SOURCE ( 'ANY', '', #53, .NOT_KNOWN. ) ;
#30 = DATE_AND_TIME ( #181, #213 ) ;
#31 = ORIENTED_EDGE ( 'NONE', *, *, #186, .F. ) ;
#32 = APPROVAL_ROLE ( '' ) ;
#33 = AXIS2_PLACEMENT_3D ( 'NONE', #112, #17, #16 ) ;
#34 = APPROVAL_STATUS ( 'not_yet_approved' ) ;
#35 = COORDINATED_UNIVERSAL_TIME_OFFSET ( 2, 0, .AHEAD. ) ;
#36 = CIRCLE ( 'NONE', #207, 19.05000000000000100 ) ;
#37 = DIRECTION ( 'NONE',  ( -1.165588477296749900E-017, -5.434385993627839900E-034, -1.000000000000000000 ) ) ;
#38 = CARTESIAN_POINT ( 'NONE',  ( -6.337880485792659600, -19.27659131991037000, 1.571668550195480800 ) ) ;
#39 = CALENDAR_DATE ( 2018, 13, 12 ) ;
#40 = DIRECTION ( 'NONE',  ( 1.000000000000000000, 2.441897141834629800E-016, -3.576540790375509800E-017 ) ) ;
#41 =( NAMED_UNIT ( * ) PLANE_ANGLE_UNIT ( ) SI_UNIT ( $, .RADIAN. ) );
#42 = CARTESIAN_POINT ( 'NONE',  ( -6.938893903907228400E-015, 19.27659131991039100, 1.571668550195479000 ) ) ;
#43 = CARTESIAN_POINT ( 'NONE',  ( 6.451233808133921800, -6.482608941915339400, -0.5285432693019929100 ) ) ;
#44 = APPROVAL_PERSON_ORGANIZATION ( #184, #95, #11 ) ;
#45 = CC_DESIGN_PERSON_AND_ORGANIZATION_ASSIGNMENT ( #125, #28, ( #29 ) ) ;
#46 = DIRECTION ( 'NONE',  ( 1.000000000000000000, 0.0000000000000000000, -1.138269997360109700E-017 ) ) ;
#47 = AXIS2_PLACEMENT_3D ( 'NONE', #86, #120, #81 ) ;
#48 = CYLINDRICAL_SURFACE ( 'NONE', #142, 19.05000000000000100 ) ;
#49 = CC_DESIGN_PERSON_AND_ORGANIZATION_ASSIGNMENT ( #173, #93, ( #29 ) ) ;
#50 = SECURITY_CLASSIFICATION_LEVEL ( 'unclassified' ) ;
#51 = VERTEX_POINT ( 'NONE', #209 ) ;
#52 = EDGE_CURVE ( 'NONE', #51, #84, #74, .T. ) ;
#53 = PRODUCT ( '110-1423E UVFS pl-cx 38.1 F250', '110-1423E UVFS pl-cx 38.1 F250', '', ( #204 ) ) ;
#54 = LINE ( 'NONE', #215, #65 ) ;
#55 = VERTEX_POINT ( 'NONE', #191 ) ;
#56 = CARTESIAN_POINT ( 'NONE',  ( -4.634201411206456200E-015, -8.881784197001250400E-016, 4.000000000000000000 ) ) ;
#57 = CIRCLE ( 'NONE', #33, 19.05000000000000100 ) ;
#58 = CARTESIAN_POINT ( 'NONE',  ( -19.05000000000000400, 1.444773732675583000E-015, 1.534696612148490400 ) ) ;
#59 = ORIENTED_EDGE ( 'NONE', *, *, #180, .F. ) ;
#60 = DIRECTION ( 'NONE',  ( -1.165588477296749900E-017, -5.434385993627839900E-034, -1.000000000000000000 ) ) ;
#61 = CARTESIAN_POINT ( 'NONE',  ( 19.24841916154996500, 6.482608941915382100, 1.031482946242486800 ) ) ;
#62 = DIRECTION ( 'NONE',  ( 1.165588477296749900E-017, 5.434385993627839900E-034, 1.000000000000000000 ) ) ;
#63 = CARTESIAN_POINT ( 'NONE',  ( 18.91020908783855200, 19.27659131991039800, 3.104283861139275600 ) ) ;
#64 = ORIENTED_EDGE ( 'NONE', *, *, #186, .T. ) ;
#65 = VECTOR ( 'NONE', #62, 1000.000000000000000 ) ;
#66 = APPLICATION_CONTEXT ( 'configuration controlled 3d designs of mechanical parts and assemblies' ) ;
#67 = DATE_TIME_ROLE ( 'classification_date' ) ;
#68 = SECURITY_CLASSIFICATION ( '', '', #50 ) ;
#69 = APPLICATION_PROTOCOL_DEFINITION ( 'international standard', 'config_control_design', 1994, #66 ) ;
#70 = COORDINATED_UNIVERSAL_TIME_OFFSET ( 2, 0, .AHEAD. ) ;
#71 = ORIENTED_EDGE ( 'NONE', *, *, #91, .T. ) ;
#72 = DIRECTION ( 'NONE',  ( 1.000000000000000000, 0.0000000000000000000, 0.0000000000000000000 ) ) ;
#73 = AXIS2_PLACEMENT_3D ( 'NONE', #56, #76, #98 ) ;
#74 = CIRCLE ( 'NONE', #197, 119.0000000000000000 ) ;
#75 = CARTESIAN_POINT ( 'NONE',  ( 2.842170943040400100E-014, 2.131628207280299900E-014, 119.0000000000000100 ) ) ;
#76 = DIRECTION ( 'NONE',  ( -1.165588477296749900E-017, -5.434385993627839900E-034, -1.000000000000000000 ) ) ;
#77 = CC_DESIGN_APPROVAL ( #160, ( #115 ) ) ;
#78 = CARTESIAN_POINT ( 'NONE',  ( -19.05000000000000400, 1.444773732675583000E-015, 4.000000000000000000 ) ) ;
#79 = CARTESIAN_POINT ( 'NONE',  ( 12.88138360086414000, 6.482608941915378500, -0.007399056764529221400 ) ) ;
#80 = EDGE_CURVE ( 'NONE', #55, #15, #36, .T. ) ;
#81 = DIRECTION ( 'NONE',  ( 1.000000000000000000, -8.881784197001252300E-016, -1.138269997360109700E-017 ) ) ;
#82 = DESIGN_CONTEXT ( 'detailed design', #66, 'design' ) ;
#83 = APPROVAL_DATE_TIME ( #23, #222 ) ;
#84 = VERTEX_POINT ( 'NONE', #131 ) ;
#85 = CC_DESIGN_APPROVAL ( #95, ( #29 ) ) ;
#86 = CARTESIAN_POINT ( 'NONE',  ( -4.662936703425659800E-015, -8.881784197001250400E-016, 1.534696612148490200 ) ) ;
#87 =( GEOMETRIC_REPRESENTATION_CONTEXT ( 3 ) GLOBAL_UNCERTAINTY_ASSIGNED_CONTEXT ( ( #124 ) ) GLOBAL_UNIT_ASSIGNED_CONTEXT ( ( #105, #41, #161 ) ) REPRESENTATION_CONTEXT ( 'NONE', 'WORKASPACE' ) );
#88 = FACE_OUTER_BOUND ( 'NONE', #182, .T. ) ;
#89 = CARTESIAN_POINT ( 'NONE',  ( 2.572970874892524800E-014, -6.482608941915341200, -0.5285432693019930200 ) ) ;
#90 = DATE_AND_TIME ( #231, #128 ) ;
#91 = EDGE_CURVE ( 'NONE', #146, #15, #225, .T. ) ;
#92 = MANIFOLD_SOLID_BREP ( 'Imported1', #103 ) ;
#93 = PERSON_AND_ORGANIZATION_ROLE ( 'creator' ) ;
#94 = COORDINATED_UNIVERSAL_TIME_OFFSET ( 2, 0, .AHEAD. ) ;
#95 = APPROVAL ( #179, 'UNSPECIFIED' ) ;
#96 = CYLINDRICAL_SURFACE ( 'NONE', #111, 19.05000000000000100 ) ;
#97 = CC_DESIGN_PERSON_AND_ORGANIZATION_ASSIGNMENT ( #121, #147, ( #68 ) ) ;
#98 = DIRECTION ( 'NONE',  ( 1.000000000000000000, 0.0000000000000000000, 0.0000000000000000000 ) ) ;
#99 = DATE_AND_TIME ( #39, #149 ) ;
#100 = CARTESIAN_POINT ( 'NONE',  ( -6.451233808133906700, -6.482608941915344800, -0.5285432693019832500 ) ) ;
#101 = DIRECTION ( 'NONE',  ( 0.0000000000000000000, 0.0000000000000000000, 1.000000000000000000 ) ) ;
#102 = PERSON_AND_ORGANIZATION ( #127, #233 ) ;
#103 = CLOSED_SHELL ( 'NONE', ( #176, #138, #143, #152, #199 ) ) ;
#104 = CARTESIAN_POINT ( 'NONE',  ( 1.951469193180405200E-014, 19.27659131991039500, 1.571668550195470800 ) ) ;
#105 =( LENGTH_UNIT ( ) NAMED_UNIT ( * ) SI_UNIT ( .MILLI., .METRE. ) );
#106 = CIRCLE ( 'NONE', #47, 19.05000000000000100 ) ;
#107 = ORIENTED_EDGE ( 'NONE', *, *, #91, .F. ) ;
#108 =( BOUNDED_SURFACE ( )  B_SPLINE_SURFACE ( 3, 3, ( 
 ( #188, #150, #38, #133 ),
 ( #165, #193, #100, #190 ),
 ( #221, #195, #21, #18 ),
 ( #119, #118, #24, #42 ) ),
 .UNSPECIFIED., .F., .F., .F. ) 
 B_SPLINE_SURFACE_WITH_KNOTS ( ( 4, 4 ),
 ( 4, 4 ),
 ( 0.0000000000000000000, 1.000000000000000000 ),
 ( 0.0000000000000000000, 1.000000000000000000 ),
 .UNSPECIFIED. ) 
 GEOMETRIC_REPRESENTATION_ITEM ( )  RATIONAL_B_SPLINE_SURFACE ( (
 ( 1.000000000000000000, 0.9978211903820014500, 0.9978211903820014500, 1.000000000000000000),
 ( 0.9911951341725744300, 0.9890355086809258200, 0.9890355086809258200, 0.9911951341725744300),
 ( 0.9911951341725744300, 0.9890355086809258200, 0.9890355086809258200, 0.9911951341725744300),
 ( 1.000000000000000000, 0.9978211903820014500, 0.9978211903820014500, 1.000000000000000000) ) ) 
 REPRESENTATION_ITEM ( '' )  SURFACE ( )  );
#109 = FACE_OUTER_BOUND ( 'NONE', #208, .T. ) ;
#110 = EDGE_LOOP ( 'NONE', ( #185, #169 ) ) ;
#111 = AXIS2_PLACEMENT_3D ( 'NONE', #220, #3, #132 ) ;
#112 = CARTESIAN_POINT ( 'NONE',  ( -4.662936703425659800E-015, -8.881784197001250400E-016, 1.534696612148490200 ) ) ;
#113 = DIRECTION ( 'NONE',  ( 1.000000000000000000, 0.0000000000000000000, 0.0000000000000000000 ) ) ;
#114 = CARTESIAN_POINT ( 'NONE',  ( -4.634201411206456200E-015, -8.881784197001250400E-016, 4.000000000000000000 ) ) ;
#115 = PRODUCT_DEFINITION ( 'UNKNOWN', '', #29, #82 ) ;
#116 = CIRCLE ( 'NONE', #175, 19.05000000000000100 ) ;
#117 = CARTESIAN_POINT ( 'NONE',  ( 18.91020908783855600, -19.27659131991035900, 3.104283861139275600 ) ) ;
#118 = CARTESIAN_POINT ( 'NONE',  ( -12.65504741914507400, 19.27659131991039500, 2.083655843348700900 ) ) ;
#119 = CARTESIAN_POINT ( 'NONE',  ( -18.91020908783856300, 19.27659131991038800, 3.104283861139298200 ) ) ;
#120 = DIRECTION ( 'NONE',  ( -1.165588477296749900E-017, -5.434385993627839900E-034, -1.000000000000000000 ) ) ;
#121 = PERSON_AND_ORGANIZATION ( #127, #233 ) ;
#122 = ORIENTED_EDGE ( 'NONE', *, *, #4, .T. ) ;
#123 = FACE_OUTER_BOUND ( 'NONE', #167, .T. ) ;
#124 = UNCERTAINTY_MEASURE_WITH_UNIT (LENGTH_MEASURE( 1.000000000000000100E-005 ), #105, 'distance_accuracy_value', 'NONE');
#125 = PERSON_AND_ORGANIZATION ( #127, #233 ) ;
#126 = EDGE_CURVE ( 'NONE', #15, #55, #205, .T. ) ;
#127 = PERSON ( 'UNSPECIFIED', 'UNSPECIFIED', 'UNSPECIFIED', ('UNSPECIFIED'), ('UNSPECIFIED'), ('UNSPECIFIED') ) ;
#128 = LOCAL_TIME ( 17, 5, 30.00000000000000000, #35 ) ;
#129 = CC_DESIGN_SECURITY_CLASSIFICATION ( #68, ( #29 ) ) ;
#130 = COORDINATED_UNIVERSAL_TIME_OFFSET ( 2, 0, .AHEAD. ) ;
#131 = CARTESIAN_POINT ( 'NONE',  ( 1.956870088500419200E-014, 19.04999999999996200, 1.534696612148481500 ) ) ;
#132 = DIRECTION ( 'NONE',  ( 1.000000000000000000, 0.0000000000000000000, -1.138269997360109700E-017 ) ) ;
#133 = CARTESIAN_POINT ( 'NONE',  ( 3.469446951953614200E-015, -19.27659131991036600, 1.571668550195479000 ) ) ;
#134 = APPROVAL_DATE_TIME ( #234, #160 ) ;
#135 = ORIENTED_EDGE ( 'NONE', *, *, #4, .F. ) ;
#136 = AXIS2_PLACEMENT_3D ( 'NONE', #20, #101, #224 ) ;
#137 = CARTESIAN_POINT ( 'NONE',  ( 6.337880485792680000, -19.27659131991036300, 1.571668550195471000 ) ) ;
#138 = ADVANCED_FACE ( 'NONE', ( #109 ), #96, .T. ) ;
#139 = CARTESIAN_POINT ( 'NONE',  ( 12.65504741914507700, 19.27659131991039800, 2.083655843348683100 ) ) ;
#140 = CIRCLE ( 'NONE', #27, 19.05000000000000100 ) ;
#141 = ORIENTED_EDGE ( 'NONE', *, *, #180, .T. ) ;
#142 = AXIS2_PLACEMENT_3D ( 'NONE', #219, #8, #211 ) ;
#143 = ADVANCED_FACE ( 'NONE', ( #123 ), #108, .T. ) ;
#144 = CALENDAR_DATE ( 2018, 13, 12 ) ;
#145 = CC_DESIGN_PERSON_AND_ORGANIZATION_ASSIGNMENT ( #102, #216, ( #115 ) ) ;
#146 = VERTEX_POINT ( 'NONE', #58 ) ;
#147 = PERSON_AND_ORGANIZATION_ROLE ( 'classification_officer' ) ;
#148 = CC_DESIGN_PERSON_AND_ORGANIZATION_ASSIGNMENT ( #154, #10, ( #53 ) ) ;
#149 = LOCAL_TIME ( 17, 5, 30.00000000000000000, #94 ) ;
#150 = CARTESIAN_POINT ( 'NONE',  ( -12.65504741914506500, -19.27659131991037000, 2.083655843348700900 ) ) ;
#151 = CARTESIAN_POINT ( 'NONE',  ( -19.05000000000000400, 1.444773732675583000E-015, 1.534696612148490200 ) ) ;
#152 = ADVANCED_FACE ( 'NONE', ( #88 ), #48, .T. ) ;
#153 = DIRECTION ( 'NONE',  ( 0.0000000000000000000, 0.0000000000000000000, 1.000000000000000000 ) ) ;
#154 = PERSON_AND_ORGANIZATION ( #127, #233 ) ;
#155 = CARTESIAN_POINT ( 'NONE',  ( 19.24841916154996800, -6.482608941915336800, 1.031482946242485900 ) ) ;
#156 = CARTESIAN_POINT ( 'NONE',  ( 12.88138360086414400, -6.482608941915338500, -0.007399056764530088800 ) ) ;
#157 = PRODUCT_RELATED_PRODUCT_CATEGORY ( 'detail', '', ( #53 ) ) ;
#158 = ORIENTED_EDGE ( 'NONE', *, *, #168, .T. ) ;
#159 = APPLICATION_PROTOCOL_DEFINITION ( 'international standard', 'config_control_design', 1994, #232 ) ;
#160 = APPROVAL ( #34, 'UNSPECIFIED' ) ;
#161 =( NAMED_UNIT ( * ) SI_UNIT ( $, .STERADIAN. ) SOLID_ANGLE_UNIT ( ) );
#162 = VERTEX_POINT ( 'NONE', #6 ) ;
#163 = ORIENTED_EDGE ( 'NONE', *, *, #189, .F. ) ;
#164 = PERSON_AND_ORGANIZATION ( #127, #233 ) ;
#165 = CARTESIAN_POINT ( 'NONE',  ( -19.24841916154997200, -6.482608941915348300, 1.031482946242509000 ) ) ;
#166 = DIRECTION ( 'NONE',  ( 1.165588477296749900E-017, 5.434385993627839900E-034, 1.000000000000000000 ) ) ;
#167 = EDGE_LOOP ( 'NONE', ( #229, #122, #158 ) ) ;
#168 = EDGE_CURVE ( 'NONE', #146, #84, #140, .T. ) ;
#169 = ORIENTED_EDGE ( 'NONE', *, *, #126, .F. ) ;
#170 = CC_DESIGN_DATE_AND_TIME_ASSIGNMENT ( #99, #202, ( #115 ) ) ;
#171 = CARTESIAN_POINT ( 'NONE',  ( 2.256373589954630100E-014, 6.482608941915377600, -0.5285432693019919100 ) ) ;
#172 = DIRECTION ( 'NONE',  ( 1.000000000000000000, 0.0000000000000000000, -1.138269997360109700E-017 ) ) ;
#173 = PERSON_AND_ORGANIZATION ( #127, #233 ) ;
#174 = ORIENTED_EDGE ( 'NONE', *, *, #168, .F. ) ;
#175 = AXIS2_PLACEMENT_3D ( 'NONE', #227, #60, #172 ) ;
#176 = ADVANCED_FACE ( 'NONE', ( #2 ), #203, .T. ) ;
#177 = DIRECTION ( 'NONE',  ( -1.165588477296749900E-017, -5.434385993627839900E-034, -1.000000000000000000 ) ) ;
#178 = LOCAL_TIME ( 17, 5, 30.00000000000000000, #192 ) ;
#179 = APPROVAL_STATUS ( 'not_yet_approved' ) ;
#180 = EDGE_CURVE ( 'NONE', #162, #51, #116, .T. ) ;
#181 = CALENDAR_DATE ( 2018, 13, 12 ) ;
#182 = EDGE_LOOP ( 'NONE', ( #107, #135, #59, #64, #235 ) ) ;
#183 = AXIS2_PLACEMENT_3D ( 'NONE', #230, #153, #72 ) ;
#184 = PERSON_AND_ORGANIZATION ( #127, #233 ) ;
#185 = ORIENTED_EDGE ( 'NONE', *, *, #80, .F. ) ;
#186 = EDGE_CURVE ( 'NONE', #162, #55, #54, .T. ) ;
#187 = FACE_OUTER_BOUND ( 'NONE', #110, .T. ) ;
#188 = CARTESIAN_POINT ( 'NONE',  ( -18.91020908783855200, -19.27659131991036600, 3.104283861139298200 ) ) ;
#189 = EDGE_CURVE ( 'NONE', #84, #162, #106, .T. ) ;
#190 = CARTESIAN_POINT ( 'NONE',  ( 0.0000000000000000000, -6.482608941915342100, -0.5285432693019850300 ) ) ;
#191 = CARTESIAN_POINT ( 'NONE',  ( 19.04999999999999700, -8.881784197001250400E-016, 4.000000000000000000 ) ) ;
#192 = COORDINATED_UNIVERSAL_TIME_OFFSET ( 2, 0, .AHEAD. ) ;
#193 = CARTESIAN_POINT ( 'NONE',  ( -12.88138360086413300, -6.482608941915347400, -0.007399056764512743300 ) ) ;
#194 = CC_DESIGN_APPROVAL ( #222, ( #68 ) ) ;
#195 = CARTESIAN_POINT ( 'NONE',  ( -12.88138360086413300, 6.482608941915369600, -0.007399056764511658200 ) ) ;
#196 = CARTESIAN_POINT ( 'NONE',  ( 12.65504741914508300, -19.27659131991035900, 2.083655843348683600 ) ) ;
#197 = AXIS2_PLACEMENT_3D ( 'NONE', #75, #40, #1 ) ;
#198 = ORIENTED_EDGE ( 'NONE', *, *, #126, .T. ) ;
#199 = ADVANCED_FACE ( 'NONE', ( #187 ), #210, .T. ) ;
#200 = PERSON_AND_ORGANIZATION ( #127, #233 ) ;
#201 = APPROVAL_ROLE ( '' ) ;
#202 = DATE_TIME_ROLE ( 'creation_date' ) ;
#203 =( BOUNDED_SURFACE ( )  B_SPLINE_SURFACE ( 3, 3, ( 
 ( #212, #137, #196, #117 ),
 ( #89, #43, #156, #155 ),
 ( #171, #5, #79, #61 ),
 ( #104, #22, #139, #63 ) ),
 .UNSPECIFIED., .F., .F., .F. ) 
 B_SPLINE_SURFACE_WITH_KNOTS ( ( 4, 4 ),
 ( 4, 4 ),
 ( 0.0000000000000000000, 1.000000000000000000 ),
 ( 0.0000000000000000000, 1.000000000000000000 ),
 .UNSPECIFIED. ) 
 GEOMETRIC_REPRESENTATION_ITEM ( )  RATIONAL_B_SPLINE_SURFACE ( (
 ( 1.000000000000000000, 0.9978211903820016800, 0.9978211903820016800, 1.000000000000000000),
 ( 0.9911951341725744300, 0.9890355086809260500, 0.9890355086809260500, 0.9911951341725744300),
 ( 0.9911951341725744300, 0.9890355086809260500, 0.9890355086809260500, 0.9911951341725744300),
 ( 1.000000000000000000, 0.9978211903820016800, 0.9978211903820016800, 1.000000000000000000) ) ) 
 REPRESENTATION_ITEM ( '' )  SURFACE ( )  );
#204 = MECHANICAL_CONTEXT ( 'NONE', #232, 'mechanical' ) ;
#205 = CIRCLE ( 'NONE', #73, 19.05000000000000100 ) ;
#206 = APPROVAL_STATUS ( 'not_yet_approved' ) ;
#207 = AXIS2_PLACEMENT_3D ( 'NONE', #114, #37, #113 ) ;
#208 = EDGE_LOOP ( 'NONE', ( #174, #71, #198, #31, #163 ) ) ;
#209 = CARTESIAN_POINT ( 'NONE',  ( 2.887232899539410400E-014, -19.04999999999994000, 1.534696612148488400 ) ) ;
#210 = PLANE ( 'NONE',  #136 ) ;
#211 = DIRECTION ( 'NONE',  ( 1.000000000000000000, 0.0000000000000000000, -1.138269997360109700E-017 ) ) ;
#212 = CARTESIAN_POINT ( 'NONE',  ( 2.892898258148473100E-014, -19.27659131991036300, 1.571668550195470800 ) ) ;
#213 = LOCAL_TIME ( 17, 5, 30.00000000000000000, #70 ) ;
#214 = SHAPE_DEFINITION_REPRESENTATION ( #7, #25 ) ;
#215 = CARTESIAN_POINT ( 'NONE',  ( 19.04999999999999700, -8.881784197001250400E-016, 1.534696612148489700 ) ) ;
#216 = PERSON_AND_ORGANIZATION_ROLE ( 'creator' ) ;
#217 = LOCAL_TIME ( 17, 5, 30.00000000000000000, #130 ) ;
#218 = APPROVAL_PERSON_ORGANIZATION ( #164, #222, #32 ) ;
#219 = CARTESIAN_POINT ( 'NONE',  ( -4.662936703425659800E-015, -8.881784197001250400E-016, 1.534696612148490000 ) ) ;
#220 = CARTESIAN_POINT ( 'NONE',  ( -4.662936703425659800E-015, -8.881784197001250400E-016, 1.534696612148490000 ) ) ;
#221 = CARTESIAN_POINT ( 'NONE',  ( -19.24841916154997200, 6.482608941915369600, 1.031482946242509900 ) ) ;
#222 = APPROVAL ( #206, 'UNSPECIFIED' ) ;
#223 = CARTESIAN_POINT ( 'NONE',  ( -4.662936703425659800E-015, -8.881784197001250400E-016, 1.534696612148490200 ) ) ;
#224 = DIRECTION ( 'NONE',  ( 1.000000000000000000, 0.0000000000000000000, -0.0000000000000000000 ) ) ;
#225 = LINE ( 'NONE', #151, #9 ) ;
#226 = EDGE_LOOP ( 'NONE', ( #141, #13, #19 ) ) ;
#227 = CARTESIAN_POINT ( 'NONE',  ( -4.662936703425659800E-015, -8.881784197001250400E-016, 1.534696612148490200 ) ) ;
#228 = CC_DESIGN_DATE_AND_TIME_ASSIGNMENT ( #30, #67, ( #68 ) ) ;
#229 = ORIENTED_EDGE ( 'NONE', *, *, #52, .F. ) ;
#230 = CARTESIAN_POINT ( 'NONE',  ( 0.0000000000000000000, 0.0000000000000000000, 0.0000000000000000000 ) ) ;
#231 = CALENDAR_DATE ( 2018, 13, 12 ) ;
#232 = APPLICATION_CONTEXT ( 'configuration controlled 3d designs of mechanical parts and assemblies' ) ;
#233 = ORGANIZATION ( 'UNSPECIFIED', 'UNSPECIFIED', '' ) ;
#234 = DATE_AND_TIME ( #144, #178 ) ;
#235 = ORIENTED_EDGE ( 'NONE', *, *, #80, .T. ) ;
ENDSEC;
END-ISO-10303-21;
