ISO-10303-21;
HEADER;
FILE_DESCRIPTION (( 'STEP AP203' ),
    '1' );
FILE_NAME ('110-1419E UVFS pl-cx 38.1 F200.STEP',
    '2018-12-13T15:05:40',
    ( '' ),
    ( '' ),
    'SwSTEP 2.0',
    'SolidWorks 2017',
    '' );
FILE_SCHEMA (( 'CONFIG_CONTROL_DESIGN' ));
ENDSEC;

DATA;
#1 = PERSON_AND_ORGANIZATION ( #214, #196 ) ;
#2 = VECTOR ( 'NONE', #151, 1000.000000000000000 ) ;
#3 = ORIENTED_EDGE ( 'NONE', *, *, #34, .F. ) ;
#4 = AXIS2_PLACEMENT_3D ( 'NONE', #59, #64, #182 ) ;
#5 = CARTESIAN_POINT ( 'NONE',  ( -19.29686001365004700, 6.515089922226662700, 1.295600232458004900 ) ) ;
#6 = CARTESIAN_POINT ( 'NONE',  ( 3.588016431512665400E-014, 19.05000000000000100, 1.925265986336218500 ) ) ;
#7 = DIRECTION ( 'NONE',  ( -1.165588477296749900E-017, -5.434385993627839900E-034, -1.000000000000000000 ) ) ;
#8 = DIRECTION ( 'NONE',  ( 1.165588477296749900E-017, 5.434385993627839900E-034, 1.000000000000000000 ) ) ;
#9 = DESIGN_CONTEXT ( 'detailed design', #66, 'design' ) ;
#10 = AXIS2_PLACEMENT_3D ( 'NONE', #148, #132, #27 ) ;
#11 = CARTESIAN_POINT ( 'NONE',  ( -12.58589774009168300, 19.27544356164155200, 2.609775044145522300 ) ) ;
#12 = ADVANCED_FACE ( 'NONE', ( #15 ), #40, .T. ) ;
#13 = COORDINATED_UNIVERSAL_TIME_OFFSET ( 2, 0, .AHEAD. ) ;
#14 = PERSON_AND_ORGANIZATION_ROLE ( 'classification_officer' ) ;
#15 = FACE_OUTER_BOUND ( 'NONE', #20, .T. ) ;
#16 = PERSON_AND_ORGANIZATION_ROLE ( 'creator' ) ;
#17 = LOCAL_TIME ( 17, 5, 39.00000000000000000, #86 ) ;
#18 = APPROVAL_STATUS ( 'not_yet_approved' ) ;
#19 = LOCAL_TIME ( 17, 5, 39.00000000000000000, #35 ) ;
#20 = EDGE_LOOP ( 'NONE', ( #226, #45, #198, #98, #127 ) ) ;
#21 = CC_DESIGN_PERSON_AND_ORGANIZATION_ASSIGNMENT ( #153, #202, ( #162 ) ) ;
#22 = FACE_OUTER_BOUND ( 'NONE', #217, .T. ) ;
#23 = CC_DESIGN_PERSON_AND_ORGANIZATION_ASSIGNMENT ( #195, #16, ( #88 ) ) ;
#24 = CARTESIAN_POINT ( 'NONE',  ( 6.487632476798043300, -6.515089922226676900, -0.6663958964045508800 ) ) ;
#25 = MECHANICAL_CONTEXT ( 'NONE', #207, 'mechanical' ) ;
#26 = DIRECTION ( 'NONE',  ( 1.000000000000000000, 0.0000000000000000000, -0.0000000000000000000 ) ) ;
#27 = DIRECTION ( 'NONE',  ( 1.000000000000000000, 0.0000000000000000000, 0.0000000000000000000 ) ) ;
#28 = CARTESIAN_POINT ( 'NONE',  ( -19.05000000000000400, 1.444773732675583000E-015, 1.925265986336220700 ) ) ;
#29 = CARTESIAN_POINT ( 'NONE',  ( 1.387778780781445700E-014, -6.515089922226675200, -0.6663958964045605400 ) ) ;
#30 = DATE_AND_TIME ( #224, #17 ) ;
#31 = LINE ( 'NONE', #133, #101 ) ;
#32 = CARTESIAN_POINT ( 'NONE',  ( -4.662936703425659800E-015, -8.881784197001250400E-016, 1.925265986336220500 ) ) ;
#33 = PERSON_AND_ORGANIZATION_ROLE ( 'creator' ) ;
#34 = EDGE_CURVE ( 'NONE', #54, #175, #233, .T. ) ;
#35 = COORDINATED_UNIVERSAL_TIME_OFFSET ( 2, 0, .AHEAD. ) ;
#36 = CC_DESIGN_APPROVAL ( #228, ( #160 ) ) ;
#37 = ADVANCED_FACE ( 'NONE', ( #22 ), #103, .T. ) ;
#38 = PERSON_AND_ORGANIZATION ( #214, #196 ) ;
#39 = FACE_OUTER_BOUND ( 'NONE', #191, .T. ) ;
#40 = CYLINDRICAL_SURFACE ( 'NONE', #206, 19.05000000000000100 ) ;
#41 = CARTESIAN_POINT ( 'NONE',  ( 19.29686001365001500, 6.515089922226663600, 1.295600232458004900 ) ) ;
#42 = DIRECTION ( 'NONE',  ( 1.000000000000000000, 9.414397848674539600E-032, 3.084613711104210100E-016 ) ) ;
#43 = DIRECTION ( 'NONE',  ( 1.000000000000000000, 0.0000000000000000000, -1.138269997360109700E-017 ) ) ;
#44 = DIRECTION ( 'NONE',  ( -1.165588477296749900E-017, -5.434385993627839900E-034, -1.000000000000000000 ) ) ;
#45 = ORIENTED_EDGE ( 'NONE', *, *, #179, .F. ) ;
#46 = CC_DESIGN_PERSON_AND_ORGANIZATION_ASSIGNMENT ( #1, #49, ( #131 ) ) ;
#47 = DIRECTION ( 'NONE',  ( 1.000000000000000000, 0.0000000000000000000, -1.138269997360109700E-017 ) ) ;
#48 = AXIS2_PLACEMENT_3D ( 'NONE', #205, #63, #223 ) ;
#49 = PERSON_AND_ORGANIZATION_ROLE ( 'design_supplier' ) ;
#50 = APPROVAL_ROLE ( '' ) ;
#51 = APPROVAL_DATE_TIME ( #168, #84 ) ;
#52 = ORIENTED_EDGE ( 'NONE', *, *, #234, .F. ) ;
#53 = ADVANCED_BREP_SHAPE_REPRESENTATION ( '110-1419E UVFS pl-cx 38.1 F200', ( #235, #4 ), #85 ) ;
#54 = VERTEX_POINT ( 'NONE', #62 ) ;
#55 = ORIENTED_EDGE ( 'NONE', *, *, #194, .F. ) ;
#56 = AXIS2_PLACEMENT_3D ( 'NONE', #167, #94, #43 ) ;
#57 = CIRCLE ( 'NONE', #81, 19.05000000000000100 ) ;
#58 = DIRECTION ( 'NONE',  ( 0.0000000000000000000, -1.000000000000000000, 2.915195422290611700E-016 ) ) ;
#59 = CARTESIAN_POINT ( 'NONE',  ( 0.0000000000000000000, 0.0000000000000000000, 0.0000000000000000000 ) ) ;
#60 = DIRECTION ( 'NONE',  ( 1.000000000000000000, 0.0000000000000000000, -1.138269997360109700E-017 ) ) ;
#61 = CARTESIAN_POINT ( 'NONE',  ( 1.387778780781445700E-014, 19.27544356164155200, 1.971588518990895300 ) ) ;
#62 = CARTESIAN_POINT ( 'NONE',  ( 3.588016431512665400E-014, -19.04999999999999400, 1.925265986336218500 ) ) ;
#63 = DIRECTION ( 'NONE',  ( -1.165588477296749900E-017, -5.434385993627839900E-034, -1.000000000000000000 ) ) ;
#64 = DIRECTION ( 'NONE',  ( 0.0000000000000000000, 0.0000000000000000000, 1.000000000000000000 ) ) ;
#65 = CARTESIAN_POINT ( 'NONE',  ( -18.76591790317398200, -19.27544356164156600, 3.879601442053765200 ) ) ;
#66 = APPLICATION_CONTEXT ( 'configuration controlled 3d designs of mechanical parts and assemblies' ) ;
#67 = ORIENTED_EDGE ( 'NONE', *, *, #234, .T. ) ;
#68 = SHAPE_DEFINITION_REPRESENTATION ( #178, #53 ) ;
#69 = AXIS2_PLACEMENT_3D ( 'NONE', #152, #44, #169 ) ;
#70 = COORDINATED_UNIVERSAL_TIME_OFFSET ( 2, 0, .AHEAD. ) ;
#71 = CARTESIAN_POINT ( 'NONE',  ( 7.105427357601000300E-015, 7.105427357601000300E-015, 95.20999999999999400 ) ) ;
#72 = CARTESIAN_POINT ( 'NONE',  ( -4.662936703425659800E-015, -8.881784197001250400E-016, 1.925265986336220300 ) ) ;
#73 = CARTESIAN_POINT ( 'NONE',  ( 19.29686001365001500, -6.515089922226674300, 1.295600232457987400 ) ) ;
#74 = EDGE_CURVE ( 'NONE', #83, #96, #181, .T. ) ;
#75 = CALENDAR_DATE ( 2018, 13, 12 ) ;
#76 = CARTESIAN_POINT ( 'NONE',  ( -12.58589774009168700, -19.27544356164156600, 2.609775044145509400 ) ) ;
#77 = CARTESIAN_POINT ( 'NONE',  ( 6.309128964994171100, 19.27544356164155200, 1.971588518990904100 ) ) ;
#78 =( NAMED_UNIT ( * ) SI_UNIT ( $, .STERADIAN. ) SOLID_ANGLE_UNIT ( ) );
#79 = DIRECTION ( 'NONE',  ( 0.0000000000000000000, 0.0000000000000000000, 1.000000000000000000 ) ) ;
#80 = CIRCLE ( 'NONE', #48, 19.05000000000000100 ) ;
#81 = AXIS2_PLACEMENT_3D ( 'NONE', #130, #164, #97 ) ;
#82 = APPROVAL_STATUS ( 'not_yet_approved' ) ;
#83 = VERTEX_POINT ( 'NONE', #188 ) ;
#84 = APPROVAL ( #209, 'UNSPECIFIED' ) ;
#85 =( GEOMETRIC_REPRESENTATION_CONTEXT ( 3 ) GLOBAL_UNCERTAINTY_ASSIGNED_CONTEXT ( ( #192 ) ) GLOBAL_UNIT_ASSIGNED_CONTEXT ( ( #184, #150, #78 ) ) REPRESENTATION_CONTEXT ( 'NONE', 'WORKASPACE' ) );
#86 = COORDINATED_UNIVERSAL_TIME_OFFSET ( 2, 0, .AHEAD. ) ;
#87 = ADVANCED_FACE ( 'NONE', ( #140 ), #105, .T. ) ;
#88 = PRODUCT_DEFINITION ( 'UNKNOWN', '', #131, #9 ) ;
#89 = VERTEX_POINT ( 'NONE', #203 ) ;
#90 = CARTESIAN_POINT ( 'NONE',  ( 3.586587560319067800E-014, 19.27544356164155200, 1.971588518990902200 ) ) ;
#91 = CC_DESIGN_PERSON_AND_ORGANIZATION_ASSIGNMENT ( #186, #14, ( #160 ) ) ;
#92 = CARTESIAN_POINT ( 'NONE',  ( -18.76591790317397800, 19.27544356164155200, 3.879601442053779000 ) ) ;
#93 = DIRECTION ( 'NONE',  ( 1.000000000000000000, 0.0000000000000000000, -1.138269997360109700E-017 ) ) ;
#94 = DIRECTION ( 'NONE',  ( 1.165588477296749900E-017, 5.434385993627839900E-034, 1.000000000000000000 ) ) ;
#95 = APPROVAL_PERSON_ORGANIZATION ( #38, #84, #50 ) ;
#96 = VERTEX_POINT ( 'NONE', #222 ) ;
#97 = DIRECTION ( 'NONE',  ( 1.000000000000000000, -8.881784197001252300E-016, -1.138269997360109700E-017 ) ) ;
#98 = ORIENTED_EDGE ( 'NONE', *, *, #194, .T. ) ;
#99 = CALENDAR_DATE ( 2018, 13, 12 ) ;
#100 = EDGE_CURVE ( 'NONE', #208, #96, #232, .T. ) ;
#101 = VECTOR ( 'NONE', #8, 1000.000000000000000 ) ;
#102 = CC_DESIGN_PERSON_AND_ORGANIZATION_ASSIGNMENT ( #216, #33, ( #131 ) ) ;
#103 =( BOUNDED_SURFACE ( )  B_SPLINE_SURFACE ( 3, 3, ( 
 ( #201, #180, #146, #110 ),
 ( #183, #24, #197, #73 ),
 ( #221, #129, #145, #41 ),
 ( #90, #77, #112, #108 ) ),
 .UNSPECIFIED., .F., .F., .F. ) 
 B_SPLINE_SURFACE_WITH_KNOTS ( ( 4, 4 ),
 ( 4, 4 ),
 ( 0.0000000000000000000, 1.000000000000000000 ),
 ( 0.0000000000000000000, 1.000000000000000000 ),
 .UNSPECIFIED. ) 
 GEOMETRIC_REPRESENTATION_ITEM ( )  RATIONAL_B_SPLINE_SURFACE ( (
 ( 1.000000000000000000, 0.9965805961408008600, 0.9965805961408008600, 1.000000000000000000),
 ( 0.9861948078353750500, 0.9828226095035406100, 0.9828226095035406100, 0.9861948078353750500),
 ( 0.9861948078353750500, 0.9828226095035406100, 0.9828226095035406100, 0.9861948078353750500),
 ( 1.000000000000000000, 0.9965805961408008600, 0.9965805961408008600, 1.000000000000000000) ) ) 
 REPRESENTATION_ITEM ( '' )  SURFACE ( )  );
#104 = DATE_AND_TIME ( #99, #116 ) ;
#105 = PLANE ( 'NONE',  #109 ) ;
#106 = ORIENTED_EDGE ( 'NONE', *, *, #155, .T. ) ;
#107 = CC_DESIGN_DATE_AND_TIME_ASSIGNMENT ( #30, #156, ( #88 ) ) ;
#108 = CARTESIAN_POINT ( 'NONE',  ( 18.76591790317394300, 19.27544356164155200, 3.879601442053779000 ) ) ;
#109 = AXIS2_PLACEMENT_3D ( 'NONE', #185, #79, #26 ) ;
#110 = CARTESIAN_POINT ( 'NONE',  ( 18.76591790317394600, -19.27544356164156600, 3.879601442053765200 ) ) ;
#111 = CALENDAR_DATE ( 2018, 13, 12 ) ;
#112 = CARTESIAN_POINT ( 'NONE',  ( 12.58589774009167800, 19.27544356164155200, 2.609775044145532500 ) ) ;
#113 = CARTESIAN_POINT ( 'NONE',  ( -19.05000000000000400, 1.444773732675583000E-015, 1.925265986336220500 ) ) ;
#114 = CARTESIAN_POINT ( 'NONE',  ( -6.487632476798023800, -6.515089922226675200, -0.6663958964045607600 ) ) ;
#115 = CARTESIAN_POINT ( 'NONE',  ( -12.94198920030371800, 6.515089922226664500, -0.01015322807102511500 ) ) ;
#116 = LOCAL_TIME ( 17, 5, 39.00000000000000000, #70 ) ;
#117 = CARTESIAN_POINT ( 'NONE',  ( -12.94198920030371800, -6.515089922226675200, -0.01015322807104333100 ) ) ;
#118 = CIRCLE ( 'NONE', #69, 19.05000000000000100 ) ;
#119 = ADVANCED_FACE ( 'NONE', ( #187 ), #139, .T. ) ;
#120 = LOCAL_TIME ( 17, 5, 39.00000000000000000, #141 ) ;
#121 = SECURITY_CLASSIFICATION_LEVEL ( 'unclassified' ) ;
#122 = APPROVAL_PERSON_ORGANIZATION ( #138, #228, #137 ) ;
#123 = CIRCLE ( 'NONE', #128, 19.05000000000000100 ) ;
#124 = APPROVAL ( #18, 'UNSPECIFIED' ) ;
#125 = LOCAL_TIME ( 17, 5, 39.00000000000000000, #13 ) ;
#126 = APPROVAL_PERSON_ORGANIZATION ( #143, #124, #157 ) ;
#127 = ORIENTED_EDGE ( 'NONE', *, *, #74, .T. ) ;
#128 = AXIS2_PLACEMENT_3D ( 'NONE', #32, #7, #47 ) ;
#129 = CARTESIAN_POINT ( 'NONE',  ( 6.487632476798042400, 6.515089922226662700, -0.6663958964045330100 ) ) ;
#130 = CARTESIAN_POINT ( 'NONE',  ( -4.662936703425659800E-015, -8.881784197001250400E-016, 1.925265986336220500 ) ) ;
#131 = PRODUCT_DEFINITION_FORMATION_WITH_SPECIFIED_SOURCE ( 'ANY', '', #162, .NOT_KNOWN. ) ;
#132 = DIRECTION ( 'NONE',  ( -1.165588477296749900E-017, -5.434385993627839900E-034, -1.000000000000000000 ) ) ;
#133 = CARTESIAN_POINT ( 'NONE',  ( 19.04999999999999700, -8.881784197001250400E-016, 1.925265986336220000 ) ) ;
#134 = CARTESIAN_POINT ( 'NONE',  ( -6.309128964994149800, 19.27544356164155200, 1.971588518990895000 ) ) ;
#135 = CARTESIAN_POINT ( 'NONE',  ( -6.309128964994152400, -19.27544356164156600, 1.971588518990880800 ) ) ;
#136 = CC_DESIGN_SECURITY_CLASSIFICATION ( #160, ( #131 ) ) ;
#137 = APPROVAL_ROLE ( '' ) ;
#138 = PERSON_AND_ORGANIZATION ( #214, #196 ) ;
#139 = CYLINDRICAL_SURFACE ( 'NONE', #56, 19.05000000000000100 ) ;
#140 = FACE_OUTER_BOUND ( 'NONE', #173, .T. ) ;
#141 = COORDINATED_UNIVERSAL_TIME_OFFSET ( 2, 0, .AHEAD. ) ;
#142 = ORIENTED_EDGE ( 'NONE', *, *, #213, .F. ) ;
#143 = PERSON_AND_ORGANIZATION ( #214, #196 ) ;
#144 = ORIENTED_EDGE ( 'NONE', *, *, #179, .T. ) ;
#145 = CARTESIAN_POINT ( 'NONE',  ( 12.94198920030370400, 6.515089922226663600, -0.01015322807101579100 ) ) ;
#146 = CARTESIAN_POINT ( 'NONE',  ( 12.58589774009168100, -19.27544356164156600, 2.609775044145518800 ) ) ;
#147 = CARTESIAN_POINT ( 'NONE',  ( -6.487632476798025600, 6.515089922226664500, -0.6663958964045432200 ) ) ;
#148 = CARTESIAN_POINT ( 'NONE',  ( -4.638753842827839100E-015, -8.881784197001250400E-016, 4.000000000000001800 ) ) ;
#149 = CALENDAR_DATE ( 2018, 13, 12 ) ;
#150 =( NAMED_UNIT ( * ) PLANE_ANGLE_UNIT ( ) SI_UNIT ( $, .RADIAN. ) );
#151 = DIRECTION ( 'NONE',  ( 1.165588477296749900E-017, 5.434385993627839900E-034, 1.000000000000000000 ) ) ;
#152 = CARTESIAN_POINT ( 'NONE',  ( -4.662936703425659800E-015, -8.881784197001250400E-016, 1.925265986336220500 ) ) ;
#153 = PERSON_AND_ORGANIZATION ( #214, #196 ) ;
#154 = ORIENTED_EDGE ( 'NONE', *, *, #155, .F. ) ;
#155 = EDGE_CURVE ( 'NONE', #96, #83, #80, .T. ) ;
#156 = DATE_TIME_ROLE ( 'creation_date' ) ;
#157 = APPROVAL_ROLE ( '' ) ;
#158 = ADVANCED_FACE ( 'NONE', ( #39 ), #215, .T. ) ;
#159 = DATE_AND_TIME ( #111, #19 ) ;
#160 = SECURITY_CLASSIFICATION ( '', '', #121 ) ;
#161 = CC_DESIGN_APPROVAL ( #124, ( #88 ) ) ;
#162 = PRODUCT ( '110-1419E UVFS pl-cx 38.1 F200', '110-1419E UVFS pl-cx 38.1 F200', '', ( #25 ) ) ;
#163 = CIRCLE ( 'NONE', #229, 19.05000000000000100 ) ;
#164 = DIRECTION ( 'NONE',  ( -1.165588477296749900E-017, -5.434385993627839900E-034, -1.000000000000000000 ) ) ;
#165 = CARTESIAN_POINT ( 'NONE',  ( -4.662936703425659800E-015, -8.881784197001250400E-016, 1.925265986336220500 ) ) ;
#166 = CARTESIAN_POINT ( 'NONE',  ( 1.040834085586084400E-014, 6.515089922226662700, -0.6663958964045431100 ) ) ;
#167 = CARTESIAN_POINT ( 'NONE',  ( -4.662936703425659800E-015, -8.881784197001250400E-016, 1.925265986336220300 ) ) ;
#168 = DATE_AND_TIME ( #149, #120 ) ;
#169 = DIRECTION ( 'NONE',  ( 1.000000000000000000, 0.0000000000000000000, -1.138269997360109700E-017 ) ) ;
#170 = ORIENTED_EDGE ( 'NONE', *, *, #190, .T. ) ;
#171 = DATE_TIME_ROLE ( 'classification_date' ) ;
#172 = CC_DESIGN_DATE_AND_TIME_ASSIGNMENT ( #231, #171, ( #160 ) ) ;
#173 = EDGE_LOOP ( 'NONE', ( #193, #154 ) ) ;
#174 = APPROVAL_DATE_TIME ( #159, #124 ) ;
#175 = VERTEX_POINT ( 'NONE', #6 ) ;
#176 = EDGE_LOOP ( 'NONE', ( #142, #230, #106, #55, #52 ) ) ;
#177 = ORIENTED_EDGE ( 'NONE', *, *, #213, .T. ) ;
#178 = PRODUCT_DEFINITION_SHAPE ( 'NONE', 'NONE',  #88 ) ;
#179 = EDGE_CURVE ( 'NONE', #54, #208, #123, .T. ) ;
#180 = CARTESIAN_POINT ( 'NONE',  ( 6.309128964994172000, -19.27544356164156600, 1.971588518990889900 ) ) ;
#181 = CIRCLE ( 'NONE', #10, 19.05000000000000100 ) ;
#182 = DIRECTION ( 'NONE',  ( 1.000000000000000000, 0.0000000000000000000, 0.0000000000000000000 ) ) ;
#183 = CARTESIAN_POINT ( 'NONE',  ( 3.667959189293148700E-014, -6.515089922226675200, -0.6663958964045528800 ) ) ;
#184 =( LENGTH_UNIT ( ) NAMED_UNIT ( * ) SI_UNIT ( .MILLI., .METRE. ) );
#185 = CARTESIAN_POINT ( 'NONE',  ( 0.0000000000000000000, 39.06600000000000300, 4.000000000000000000 ) ) ;
#186 = PERSON_AND_ORGANIZATION ( #214, #196 ) ;
#187 = FACE_OUTER_BOUND ( 'NONE', #176, .T. ) ;
#188 = CARTESIAN_POINT ( 'NONE',  ( 19.04999999999999700, -8.881784197001250400E-016, 4.000000000000001800 ) ) ;
#189 = CC_DESIGN_APPROVAL ( #84, ( #131 ) ) ;
#190 = EDGE_CURVE ( 'NONE', #89, #54, #163, .T. ) ;
#191 = EDGE_LOOP ( 'NONE', ( #3, #144, #177 ) ) ;
#192 = UNCERTAINTY_MEASURE_WITH_UNIT (LENGTH_MEASURE( 1.000000000000000100E-005 ), #184, 'distance_accuracy_value', 'NONE');
#193 = ORIENTED_EDGE ( 'NONE', *, *, #74, .F. ) ;
#194 = EDGE_CURVE ( 'NONE', #89, #83, #31, .T. ) ;
#195 = PERSON_AND_ORGANIZATION ( #214, #196 ) ;
#196 = ORGANIZATION ( 'UNSPECIFIED', 'UNSPECIFIED', '' ) ;
#197 = CARTESIAN_POINT ( 'NONE',  ( 12.94198920030370700, -6.515089922226674300, -0.01015322807103357200 ) ) ;
#198 = ORIENTED_EDGE ( 'NONE', *, *, #190, .F. ) ;
#199 = DIRECTION ( 'NONE',  ( 1.165588477296749900E-017, 5.434385993627839900E-034, 1.000000000000000000 ) ) ;
#200 = CARTESIAN_POINT ( 'NONE',  ( -19.29686001365004700, -6.515089922226675200, 1.295600232457986700 ) ) ;
#201 = CARTESIAN_POINT ( 'NONE',  ( 3.586587560319068400E-014, -19.27544356164156600, 1.971588518990888200 ) ) ;
#202 = PERSON_AND_ORGANIZATION_ROLE ( 'design_owner' ) ;
#203 = CARTESIAN_POINT ( 'NONE',  ( 19.04999999999999700, -8.881784197001250400E-016, 1.925265986336220300 ) ) ;
#204 = PRODUCT_RELATED_PRODUCT_CATEGORY ( 'detail', '', ( #162 ) ) ;
#205 = CARTESIAN_POINT ( 'NONE',  ( -4.638753842827839100E-015, -8.881784197001250400E-016, 4.000000000000001800 ) ) ;
#206 = AXIS2_PLACEMENT_3D ( 'NONE', #72, #199, #60 ) ;
#207 = APPLICATION_CONTEXT ( 'configuration controlled 3d designs of mechanical parts and assemblies' ) ;
#208 = VERTEX_POINT ( 'NONE', #28 ) ;
#209 = APPROVAL_STATUS ( 'not_yet_approved' ) ;
#210 = APPLICATION_PROTOCOL_DEFINITION ( 'international standard', 'config_control_design', 1994, #66 ) ;
#211 = APPROVAL_DATE_TIME ( #104, #228 ) ;
#212 = ORIENTED_EDGE ( 'NONE', *, *, #34, .T. ) ;
#213 = EDGE_CURVE ( 'NONE', #208, #175, #118, .T. ) ;
#214 = PERSON ( 'UNSPECIFIED', 'UNSPECIFIED', 'UNSPECIFIED', ('UNSPECIFIED'), ('UNSPECIFIED'), ('UNSPECIFIED') ) ;
#215 =( BOUNDED_SURFACE ( )  B_SPLINE_SURFACE ( 3, 3, ( 
 ( #65, #76, #135, #225 ),
 ( #200, #117, #114, #29 ),
 ( #5, #115, #147, #166 ),
 ( #92, #11, #134, #61 ) ),
 .UNSPECIFIED., .F., .F., .F. ) 
 B_SPLINE_SURFACE_WITH_KNOTS ( ( 4, 4 ),
 ( 4, 4 ),
 ( 0.0000000000000000000, 1.000000000000000000 ),
 ( 0.0000000000000000000, 1.000000000000000000 ),
 .UNSPECIFIED. ) 
 GEOMETRIC_REPRESENTATION_ITEM ( )  RATIONAL_B_SPLINE_SURFACE ( (
 ( 1.000000000000000000, 0.9965805961408006300, 0.9965805961408006300, 1.000000000000000000),
 ( 0.9861948078353750500, 0.9828226095035403900, 0.9828226095035403900, 0.9861948078353750500),
 ( 0.9861948078353750500, 0.9828226095035403900, 0.9828226095035403900, 0.9861948078353750500),
 ( 1.000000000000000000, 0.9965805961408006300, 0.9965805961408006300, 1.000000000000000000) ) ) 
 REPRESENTATION_ITEM ( '' )  SURFACE ( )  );
#216 = PERSON_AND_ORGANIZATION ( #214, #196 ) ;
#217 = EDGE_LOOP ( 'NONE', ( #170, #212, #67 ) ) ;
#218 = AXIS2_PLACEMENT_3D ( 'NONE', #71, #42, #58 ) ;
#219 = CLOSED_SHELL ( 'NONE', ( #37, #119, #158, #12, #87 ) ) ;
#220 = DIRECTION ( 'NONE',  ( -1.165588477296749900E-017, -5.434385993627839900E-034, -1.000000000000000000 ) ) ;
#221 = CARTESIAN_POINT ( 'NONE',  ( 3.667959189293148000E-014, 6.515089922226662700, -0.6663958964045351200 ) ) ;
#222 = CARTESIAN_POINT ( 'NONE',  ( -19.05000000000000400, 1.444773732675583000E-015, 4.000000000000001800 ) ) ;
#223 = DIRECTION ( 'NONE',  ( 1.000000000000000000, 0.0000000000000000000, 0.0000000000000000000 ) ) ;
#224 = CALENDAR_DATE ( 2018, 13, 12 ) ;
#225 = CARTESIAN_POINT ( 'NONE',  ( 1.387778780781445700E-014, -19.27544356164156600, 1.971588518990881300 ) ) ;
#226 = ORIENTED_EDGE ( 'NONE', *, *, #100, .F. ) ;
#227 = APPLICATION_PROTOCOL_DEFINITION ( 'international standard', 'config_control_design', 1994, #207 ) ;
#228 = APPROVAL ( #82, 'UNSPECIFIED' ) ;
#229 = AXIS2_PLACEMENT_3D ( 'NONE', #165, #220, #93 ) ;
#230 = ORIENTED_EDGE ( 'NONE', *, *, #100, .T. ) ;
#231 = DATE_AND_TIME ( #75, #125 ) ;
#232 = LINE ( 'NONE', #113, #2 ) ;
#233 = CIRCLE ( 'NONE', #218, 95.20999999999999400 ) ;
#234 = EDGE_CURVE ( 'NONE', #175, #89, #57, .T. ) ;
#235 = MANIFOLD_SOLID_BREP ( 'Imported1', #219 ) ;
ENDSEC;
END-ISO-10303-21;
