ISO-10303-21;
HEADER;
FILE_DESCRIPTION (( 'STEP AP203' ),
    '1' );
FILE_NAME ('110-1415E UVFS pl-cx 38.1 F150.STEP',
    '2018-12-13T15:05:49',
    ( '' ),
    ( '' ),
    'SwSTEP 2.0',
    'SolidWorks 2017',
    '' );
FILE_SCHEMA (( 'CONFIG_CONTROL_DESIGN' ));
ENDSEC;

DATA;
#1 = ORGANIZATION ( 'UNSPECIFIED', 'UNSPECIFIED', '' ) ;
#2 = ORIENTED_EDGE ( 'NONE', *, *, #221, .T. ) ;
#3 = COORDINATED_UNIVERSAL_TIME_OFFSET ( 2, 0, .AHEAD. ) ;
#4 = AXIS2_PLACEMENT_3D ( 'NONE', #220, #65, #154 ) ;
#5 = LOCAL_TIME ( 17, 5, 49.00000000000000000, #82 ) ;
#6 = ORIENTED_EDGE ( 'NONE', *, *, #52, .F. ) ;
#7 = DIRECTION ( 'NONE',  ( 2.331176954593499900E-017, 1.086877198725570000E-033, 1.000000000000000000 ) ) ;
#8 = CIRCLE ( 'NONE', #92, 19.05000000000000100 ) ;
#9 = CARTESIAN_POINT ( 'NONE',  ( 1.426955914687379900E-014, -19.04999999999998300, 2.587869838256237300 ) ) ;
#10 = DIRECTION ( 'NONE',  ( 1.000000000000000000, 0.0000000000000000000, -4.553079989440438700E-017 ) ) ;
#11 = CARTESIAN_POINT ( 'NONE',  ( -19.05000000000000400, 1.444773732675583000E-015, 2.587869838256240400 ) ) ;
#12 = DATE_AND_TIME ( #127, #57 ) ;
#13 = CARTESIAN_POINT ( 'NONE',  ( -1.040834085586084600E-014, -6.587270457864663700, -0.9057278623064813900 ) ) ;
#14 = DIRECTION ( 'NONE',  ( -2.331176954593499900E-017, -1.086877198725570000E-033, -1.000000000000000000 ) ) ;
#15 = CARTESIAN_POINT ( 'NONE',  ( 19.40451748197355600, -6.587270457864661900, 1.746313637972376900 ) ) ;
#16 = PERSON_AND_ORGANIZATION_ROLE ( 'design_supplier' ) ;
#17 = DIRECTION ( 'NONE',  ( 1.000000000000000000, 8.367767716424150400E-032, -2.056337147698020000E-016 ) ) ;
#18 = CIRCLE ( 'NONE', #4, 19.05000000000000100 ) ;
#19 = APPLICATION_PROTOCOL_DEFINITION ( 'international standard', 'config_control_design', 1994, #75 ) ;
#20 = VERTEX_POINT ( 'NONE', #43 ) ;
#21 = DATE_AND_TIME ( #143, #5 ) ;
#22 = EDGE_CURVE ( 'NONE', #79, #131, #18, .T. ) ;
#23 =( BOUNDED_SURFACE ( )  B_SPLINE_SURFACE ( 3, 3, ( 
 ( #162, #71, #108, #87 ),
 ( #50, #163, #183, #13 ),
 ( #227, #178, #85, #129 ),
 ( #84, #27, #211, #69 ) ),
 .UNSPECIFIED., .F., .F., .F. ) 
 B_SPLINE_SURFACE_WITH_KNOTS ( ( 4, 4 ),
 ( 4, 4 ),
 ( 0.0000000000000000000, 1.000000000000000000 ),
 ( 0.0000000000000000000, 1.000000000000000000 ),
 .UNSPECIFIED. ) 
 GEOMETRIC_REPRESENTATION_ITEM ( )  RATIONAL_B_SPLINE_SURFACE ( (
 ( 1.000000000000000000, 0.9938595386838923200, 0.9938595386838923200, 1.000000000000000000),
 ( 0.9752605884889004000, 0.9692720385721599300, 0.9692720385721599300, 0.9752605884889004000),
 ( 0.9752605884889004000, 0.9692720385721599300, 0.9692720385721599300, 0.9752605884889004000),
 ( 1.000000000000000000, 0.9938595386838923200, 0.9938595386838923200, 1.000000000000000000) ) ) 
 REPRESENTATION_ITEM ( '' )  SURFACE ( )  );
#24 = ORIENTED_EDGE ( 'NONE', *, *, #148, .T. ) ;
#25 = COORDINATED_UNIVERSAL_TIME_OFFSET ( 2, 0, .AHEAD. ) ;
#26 = CARTESIAN_POINT ( 'NONE',  ( 6.568637141348308900, 6.587270457864660100, -0.9057278623064635200 ) ) ;
#27 = CARTESIAN_POINT ( 'NONE',  ( -12.43380113704249200, 19.27291578981789800, 3.495703086930490100 ) ) ;
#28 = CARTESIAN_POINT ( 'NONE',  ( -4.662936703425659800E-015, -8.881784197001250400E-016, 2.587869838256240400 ) ) ;
#29 = CC_DESIGN_DATE_AND_TIME_ASSIGNMENT ( #96, #114, ( #54 ) ) ;
#30 = MANIFOLD_SOLID_BREP ( 'Imported1', #100 ) ;
#31 = CIRCLE ( 'NONE', #197, 71.40999999999999700 ) ;
#32 = APPLICATION_PROTOCOL_DEFINITION ( 'international standard', 'config_control_design', 1994, #231 ) ;
#33 = SECURITY_CLASSIFICATION_LEVEL ( 'unclassified' ) ;
#34 = PERSON_AND_ORGANIZATION ( #168, #1 ) ;
#35 = CIRCLE ( 'NONE', #95, 19.05000000000000100 ) ;
#36 = APPROVAL_DATE_TIME ( #12, #232 ) ;
#37 = ADVANCED_FACE ( 'NONE', ( #112 ), #149, .T. ) ;
#38 = LINE ( 'NONE', #173, #160 ) ;
#39 = ADVANCED_BREP_SHAPE_REPRESENTATION ( '110-1415E UVFS pl-cx 38.1 F150', ( #30, #158 ), #153 ) ;
#40 = CC_DESIGN_SECURITY_CLASSIFICATION ( #54, ( #126 ) ) ;
#41 = EDGE_CURVE ( 'NONE', #131, #20, #8, .T. ) ;
#42 = ADVANCED_FACE ( 'NONE', ( #134 ), #228, .T. ) ;
#43 = CARTESIAN_POINT ( 'NONE',  ( 1.426955914687379600E-014, 19.04999999999999000, 2.587869838256237300 ) ) ;
#44 = DESIGN_CONTEXT ( 'detailed design', #75, 'design' ) ;
#45 = APPROVAL_PERSON_ORGANIZATION ( #118, #232, #135 ) ;
#46 = DIRECTION ( 'NONE',  ( 1.000000000000000000, 0.0000000000000000000, -2.276539994720219300E-017 ) ) ;
#47 = CARTESIAN_POINT ( 'NONE',  ( 19.40451748197355300, 6.587270457864660100, 1.746313637972393400 ) ) ;
#48 = EDGE_CURVE ( 'NONE', #182, #202, #35, .T. ) ;
#49 = PERSON_AND_ORGANIZATION ( #168, #1 ) ;
#50 = CARTESIAN_POINT ( 'NONE',  ( -19.40451748197361700, -6.587270457864664600, 1.746313637972411100 ) ) ;
#51 = VERTEX_POINT ( 'NONE', #219 ) ;
#52 = EDGE_CURVE ( 'NONE', #51, #182, #38, .T. ) ;
#53 = DIRECTION ( 'NONE',  ( 2.331176954593499900E-017, 1.086877198725570000E-033, 1.000000000000000000 ) ) ;
#54 = SECURITY_CLASSIFICATION ( '', '', #33 ) ;
#55 = DIRECTION ( 'NONE',  ( 2.331176954593499900E-017, 1.086877198725570000E-033, 1.000000000000000000 ) ) ;
#56 =( NAMED_UNIT ( * ) PLANE_ANGLE_UNIT ( ) SI_UNIT ( $, .RADIAN. ) );
#57 = LOCAL_TIME ( 17, 5, 49.00000000000000000, #67 ) ;
#58 = CC_DESIGN_APPROVAL ( #97, ( #150 ) ) ;
#59 = AXIS2_PLACEMENT_3D ( 'NONE', #181, #70, #229 ) ;
#60 = FACE_OUTER_BOUND ( 'NONE', #86, .T. ) ;
#61 = APPROVAL ( #119, 'UNSPECIFIED' ) ;
#62 = CIRCLE ( 'NONE', #188, 19.05000000000000100 ) ;
#63 = AXIS2_PLACEMENT_3D ( 'NONE', #142, #196, #107 ) ;
#64 = ORIENTED_EDGE ( 'NONE', *, *, #170, .T. ) ;
#65 = DIRECTION ( 'NONE',  ( -2.331176954593499900E-017, -1.086877198725570000E-033, -1.000000000000000000 ) ) ;
#66 = EDGE_CURVE ( 'NONE', #51, #79, #128, .T. ) ;
#67 = COORDINATED_UNIVERSAL_TIME_OFFSET ( 2, 0, .AHEAD. ) ;
#68 = ORIENTED_EDGE ( 'NONE', *, *, #184, .F. ) ;
#69 = CARTESIAN_POINT ( 'NONE',  ( -1.040834085586084300E-014, 19.27291578981790500, 2.649962064011438700 ) ) ;
#70 = DIRECTION ( 'NONE',  ( 0.0000000000000000000, 0.0000000000000000000, 1.000000000000000000 ) ) ;
#71 = CARTESIAN_POINT ( 'NONE',  ( -12.43380113704248800, -19.27291578981790800, 3.495703086930476400 ) ) ;
#72 = CC_DESIGN_APPROVAL ( #61, ( #54 ) ) ;
#73 = CARTESIAN_POINT ( 'NONE',  ( 2.842170943040400100E-014, 7.105427357601000300E-015, 71.40999999999999700 ) ) ;
#74 = CARTESIAN_POINT ( 'NONE',  ( 0.0000000000000000000, 0.0000000000000000000, 0.0000000000000000000 ) ) ;
#75 = APPLICATION_CONTEXT ( 'configuration controlled 3d designs of mechanical parts and assemblies' ) ;
#76 = EDGE_LOOP ( 'NONE', ( #68, #171, #121, #194, #147 ) ) ;
#77 = MECHANICAL_CONTEXT ( 'NONE', #231, 'mechanical' ) ;
#78 = PERSON_AND_ORGANIZATION_ROLE ( 'classification_officer' ) ;
#79 = VERTEX_POINT ( 'NONE', #9 ) ;
#80 = PRODUCT_DEFINITION_SHAPE ( 'NONE', 'NONE',  #150 ) ;
#81 = DIRECTION ( 'NONE',  ( 1.000000000000000000, 0.0000000000000000000, -2.276539994720219300E-017 ) ) ;
#82 = COORDINATED_UNIVERSAL_TIME_OFFSET ( 2, 0, .AHEAD. ) ;
#83 = CARTESIAN_POINT ( 'NONE',  ( 1.355115767379585000E-014, 6.587270457864661000, -0.9057278623064622900 ) ) ;
#84 = CARTESIAN_POINT ( 'NONE',  ( -18.45041732457650200, 19.27291578981790100, 5.171605412664536800 ) ) ;
#85 = CARTESIAN_POINT ( 'NONE',  ( -6.568637141348327500, 6.587270457864656600, -0.9057278623064608500 ) ) ;
#86 = EDGE_LOOP ( 'NONE', ( #187, #213, #94 ) ) ;
#87 = CARTESIAN_POINT ( 'NONE',  ( -1.040834085586084300E-014, -19.27291578981790800, 2.649962064011426300 ) ) ;
#88 = CARTESIAN_POINT ( 'NONE',  ( 1.428232740191416500E-014, -19.27291578981790800, 2.649962064011426800 ) ) ;
#89 = PRODUCT ( '110-1415E UVFS pl-cx 38.1 F150', '110-1415E UVFS pl-cx 38.1 F150', '', ( #77 ) ) ;
#90 =( LENGTH_UNIT ( ) NAMED_UNIT ( * ) SI_UNIT ( .MILLI., .METRE. ) );
#91 = DATE_AND_TIME ( #208, #186 ) ;
#92 = AXIS2_PLACEMENT_3D ( 'NONE', #191, #205, #81 ) ;
#93 = APPROVAL_DATE_TIME ( #91, #61 ) ;
#94 = ORIENTED_EDGE ( 'NONE', *, *, #41, .T. ) ;
#95 = AXIS2_PLACEMENT_3D ( 'NONE', #140, #223, #10 ) ;
#96 = DATE_AND_TIME ( #201, #137 ) ;
#97 = APPROVAL ( #166, 'UNSPECIFIED' ) ;
#98 = CC_DESIGN_PERSON_AND_ORGANIZATION_ASSIGNMENT ( #192, #133, ( #89 ) ) ;
#99 = CIRCLE ( 'NONE', #215, 19.05000000000000100 ) ;
#100 = CLOSED_SHELL ( 'NONE', ( #172, #42, #125, #37, #103 ) ) ;
#101 = CC_DESIGN_PERSON_AND_ORGANIZATION_ASSIGNMENT ( #49, #78, ( #54 ) ) ;
#102 = PERSON_AND_ORGANIZATION ( #168, #1 ) ;
#103 = ADVANCED_FACE ( 'NONE', ( #199 ), #109, .T. ) ;
#104 = DIRECTION ( 'NONE',  ( 2.331176954593499900E-017, 1.086877198725570000E-033, 1.000000000000000000 ) ) ;
#105 = DIRECTION ( 'NONE',  ( 1.000000000000000000, 0.0000000000000000000, -2.276539994720219300E-017 ) ) ;
#106 = LINE ( 'NONE', #11, #180 ) ;
#107 = DIRECTION ( 'NONE',  ( 1.000000000000000000, 0.0000000000000000000, -2.276539994720219300E-017 ) ) ;
#108 = CARTESIAN_POINT ( 'NONE',  ( -6.245664012216568800, -19.27291578981790500, 2.649962064011429900 ) ) ;
#109 = PLANE ( 'NONE',  #59 ) ;
#110 = PRODUCT_RELATED_PRODUCT_CATEGORY ( 'detail', '', ( #89 ) ) ;
#111 = DIRECTION ( 'NONE',  ( -2.331176954593499900E-017, -1.086877198725570000E-033, -1.000000000000000000 ) ) ;
#112 = FACE_OUTER_BOUND ( 'NONE', #76, .T. ) ;
#113 = DIRECTION ( 'NONE',  ( 0.0000000000000000000, 0.0000000000000000000, 1.000000000000000000 ) ) ;
#114 = DATE_TIME_ROLE ( 'classification_date' ) ;
#115 = PERSON_AND_ORGANIZATION_ROLE ( 'creator' ) ;
#116 = CC_DESIGN_DATE_AND_TIME_ASSIGNMENT ( #130, #117, ( #150 ) ) ;
#117 = DATE_TIME_ROLE ( 'creation_date' ) ;
#118 = PERSON_AND_ORGANIZATION ( #168, #1 ) ;
#119 = APPROVAL_STATUS ( 'not_yet_approved' ) ;
#120 = AXIS2_PLACEMENT_3D ( 'NONE', #206, #104, #176 ) ;
#121 = ORIENTED_EDGE ( 'NONE', *, *, #66, .F. ) ;
#122 = COORDINATED_UNIVERSAL_TIME_OFFSET ( 2, 0, .AHEAD. ) ;
#123 = EDGE_LOOP ( 'NONE', ( #210, #164, #24, #6, #138 ) ) ;
#124 = ORIENTED_EDGE ( 'NONE', *, *, #48, .F. ) ;
#125 = ADVANCED_FACE ( 'NONE', ( #60 ), #23, .T. ) ;
#126 = PRODUCT_DEFINITION_FORMATION_WITH_SPECIFIED_SOURCE ( 'ANY', '', #89, .NOT_KNOWN. ) ;
#127 = CALENDAR_DATE ( 2018, 13, 12 ) ;
#128 = CIRCLE ( 'NONE', #63, 19.05000000000000100 ) ;
#129 = CARTESIAN_POINT ( 'NONE',  ( -1.040834085586084600E-014, 6.587270457864658400, -0.9057278623064642900 ) ) ;
#130 = DATE_AND_TIME ( #189, #218 ) ;
#131 = VERTEX_POINT ( 'NONE', #226 ) ;
#132 = CARTESIAN_POINT ( 'NONE',  ( 6.568637141348311600, -6.587270457864660100, -0.9057278623064803900 ) ) ;
#133 = PERSON_AND_ORGANIZATION_ROLE ( 'design_owner' ) ;
#134 = FACE_OUTER_BOUND ( 'NONE', #123, .T. ) ;
#135 = APPROVAL_ROLE ( '' ) ;
#136 = DIRECTION ( 'NONE',  ( 1.000000000000000000, 0.0000000000000000000, 0.0000000000000000000 ) ) ;
#137 = LOCAL_TIME ( 17, 5, 49.00000000000000000, #122 ) ;
#138 = ORIENTED_EDGE ( 'NONE', *, *, #170, .F. ) ;
#139 = ORIENTED_EDGE ( 'NONE', *, *, #66, .T. ) ;
#140 = CARTESIAN_POINT ( 'NONE',  ( -4.597380973161916600E-015, -8.881784197001250400E-016, 5.400000000000000400 ) ) ;
#141 = CARTESIAN_POINT ( 'NONE',  ( 12.43380113704246000, 19.27291578981790100, 3.495703086930472400 ) ) ;
#142 = CARTESIAN_POINT ( 'NONE',  ( -4.662936703425659800E-015, -8.881784197001250400E-016, 2.587869838256240400 ) ) ;
#143 = CALENDAR_DATE ( 2018, 13, 12 ) ;
#144 =( NAMED_UNIT ( * ) SI_UNIT ( $, .STERADIAN. ) SOLID_ANGLE_UNIT ( ) );
#145 = APPROVAL_ROLE ( '' ) ;
#146 = PERSON_AND_ORGANIZATION ( #168, #1 ) ;
#147 = ORIENTED_EDGE ( 'NONE', *, *, #48, .T. ) ;
#148 = EDGE_CURVE ( 'NONE', #202, #182, #62, .T. ) ;
#149 = CYLINDRICAL_SURFACE ( 'NONE', #203, 19.05000000000000100 ) ;
#150 = PRODUCT_DEFINITION ( 'UNKNOWN', '', #126, #44 ) ;
#151 = PERSON_AND_ORGANIZATION ( #168, #1 ) ;
#152 = ORIENTED_EDGE ( 'NONE', *, *, #148, .F. ) ;
#153 =( GEOMETRIC_REPRESENTATION_CONTEXT ( 3 ) GLOBAL_UNCERTAINTY_ASSIGNED_CONTEXT ( ( #225 ) ) GLOBAL_UNIT_ASSIGNED_CONTEXT ( ( #90, #56, #144 ) ) REPRESENTATION_CONTEXT ( 'NONE', 'WORKASPACE' ) );
#154 = DIRECTION ( 'NONE',  ( 1.000000000000000000, 0.0000000000000000000, -2.276539994720219300E-017 ) ) ;
#155 = EDGE_LOOP ( 'NONE', ( #139, #2, #64 ) ) ;
#156 = CARTESIAN_POINT ( 'NONE',  ( -4.662936703425659800E-015, -8.881784197001250400E-016, 2.587869838256240000 ) ) ;
#157 = CARTESIAN_POINT ( 'NONE',  ( 13.07677258929760800, 6.587270457864660100, -0.01625223821884874700 ) ) ;
#158 = AXIS2_PLACEMENT_3D ( 'NONE', #74, #113, #136 ) ;
#159 = CARTESIAN_POINT ( 'NONE',  ( 18.45041732457644900, 19.27291578981790500, 5.171605412664503900 ) ) ;
#160 = VECTOR ( 'NONE', #53, 1000.000000000000000 ) ;
#161 = CARTESIAN_POINT ( 'NONE',  ( 12.43380113704245800, -19.27291578981790500, 3.495703086930458600 ) ) ;
#162 = CARTESIAN_POINT ( 'NONE',  ( -18.45041732457649900, -19.27291578981791200, 5.171605412664523400 ) ) ;
#163 = CARTESIAN_POINT ( 'NONE',  ( -13.07677258929764700, -6.587270457864661900, -0.01625223821884744900 ) ) ;
#164 = ORIENTED_EDGE ( 'NONE', *, *, #184, .T. ) ;
#165 = CC_DESIGN_PERSON_AND_ORGANIZATION_ASSIGNMENT ( #151, #115, ( #150 ) ) ;
#166 = APPROVAL_STATUS ( 'not_yet_approved' ) ;
#167 = DIRECTION ( 'NONE',  ( 0.0000000000000000000, -1.000000000000000000, -3.886791151887539000E-016 ) ) ;
#168 = PERSON ( 'UNSPECIFIED', 'UNSPECIFIED', 'UNSPECIFIED', ('UNSPECIFIED'), ('UNSPECIFIED'), ('UNSPECIFIED') ) ;
#169 = EDGE_LOOP ( 'NONE', ( #124, #152 ) ) ;
#170 = EDGE_CURVE ( 'NONE', #20, #51, #99, .T. ) ;
#171 = ORIENTED_EDGE ( 'NONE', *, *, #22, .F. ) ;
#172 = ADVANCED_FACE ( 'NONE', ( #204 ), #216, .T. ) ;
#173 = CARTESIAN_POINT ( 'NONE',  ( 19.04999999999999700, -8.881784197001250400E-016, 2.587869838256239500 ) ) ;
#174 = APPROVAL_PERSON_ORGANIZATION ( #34, #97, #145 ) ;
#175 = CC_DESIGN_PERSON_AND_ORGANIZATION_ASSIGNMENT ( #190, #234, ( #126 ) ) ;
#176 = DIRECTION ( 'NONE',  ( 1.000000000000000000, 0.0000000000000000000, -2.276539994720219300E-017 ) ) ;
#177 = SHAPE_DEFINITION_REPRESENTATION ( #80, #39 ) ;
#178 = CARTESIAN_POINT ( 'NONE',  ( -13.07677258929764500, 6.587270457864656600, -0.01625223821883075100 ) ) ;
#179 = CARTESIAN_POINT ( 'NONE',  ( 1.355115767379585000E-014, -6.587270457864661000, -0.9057278623064792800 ) ) ;
#180 = VECTOR ( 'NONE', #55, 1000.000000000000000 ) ;
#181 = CARTESIAN_POINT ( 'NONE',  ( 0.0000000000000000000, 39.06600000000000300, 5.400000000000000400 ) ) ;
#182 = VERTEX_POINT ( 'NONE', #198 ) ;
#183 = CARTESIAN_POINT ( 'NONE',  ( -6.568637141348328400, -6.587270457864661900, -0.9057278623064777300 ) ) ;
#184 = EDGE_CURVE ( 'NONE', #131, #202, #106, .T. ) ;
#185 = CARTESIAN_POINT ( 'NONE',  ( -19.05000000000000400, 1.444773732675583000E-015, 5.400000000000001200 ) ) ;
#186 = LOCAL_TIME ( 17, 5, 49.00000000000000000, #3 ) ;
#187 = ORIENTED_EDGE ( 'NONE', *, *, #221, .F. ) ;
#188 = AXIS2_PLACEMENT_3D ( 'NONE', #214, #111, #212 ) ;
#189 = CALENDAR_DATE ( 2018, 13, 12 ) ;
#190 = PERSON_AND_ORGANIZATION ( #168, #1 ) ;
#191 = CARTESIAN_POINT ( 'NONE',  ( -4.662936703425659800E-015, -8.881784197001250400E-016, 2.587869838256240400 ) ) ;
#192 = PERSON_AND_ORGANIZATION ( #168, #1 ) ;
#193 = CARTESIAN_POINT ( 'NONE',  ( 6.245664012216552800, -19.27291578981790500, 2.649962064011425900 ) ) ;
#194 = ORIENTED_EDGE ( 'NONE', *, *, #52, .T. ) ;
#195 = CARTESIAN_POINT ( 'NONE',  ( 13.07677258929760800, -6.587270457864660100, -0.01625223821886543800 ) ) ;
#196 = DIRECTION ( 'NONE',  ( -2.331176954593499900E-017, -1.086877198725570000E-033, -1.000000000000000000 ) ) ;
#197 = AXIS2_PLACEMENT_3D ( 'NONE', #73, #17, #167 ) ;
#198 = CARTESIAN_POINT ( 'NONE',  ( 19.04999999999999700, -8.881784197001250400E-016, 5.399999999999999500 ) ) ;
#199 = FACE_OUTER_BOUND ( 'NONE', #169, .T. ) ;
#200 = CC_DESIGN_APPROVAL ( #232, ( #126 ) ) ;
#201 = CALENDAR_DATE ( 2018, 13, 12 ) ;
#202 = VERTEX_POINT ( 'NONE', #185 ) ;
#203 = AXIS2_PLACEMENT_3D ( 'NONE', #156, #7, #46 ) ;
#204 = FACE_OUTER_BOUND ( 'NONE', #155, .T. ) ;
#205 = DIRECTION ( 'NONE',  ( -2.331176954593499900E-017, -1.086877198725570000E-033, -1.000000000000000000 ) ) ;
#206 = CARTESIAN_POINT ( 'NONE',  ( -4.662936703425659800E-015, -8.881784197001250400E-016, 2.587869838256240000 ) ) ;
#207 = CC_DESIGN_PERSON_AND_ORGANIZATION_ASSIGNMENT ( #146, #16, ( #126 ) ) ;
#208 = CALENDAR_DATE ( 2018, 13, 12 ) ;
#209 = CARTESIAN_POINT ( 'NONE',  ( 1.428232740191416200E-014, 19.27291578981790500, 2.649962064011441000 ) ) ;
#210 = ORIENTED_EDGE ( 'NONE', *, *, #41, .F. ) ;
#211 = CARTESIAN_POINT ( 'NONE',  ( -6.245664012216570500, 19.27291578981790100, 2.649962064011441900 ) ) ;
#212 = DIRECTION ( 'NONE',  ( 1.000000000000000000, 0.0000000000000000000, -4.553079989440438700E-017 ) ) ;
#213 = ORIENTED_EDGE ( 'NONE', *, *, #22, .T. ) ;
#214 = CARTESIAN_POINT ( 'NONE',  ( -4.597380973161916600E-015, -8.881784197001250400E-016, 5.400000000000000400 ) ) ;
#215 = AXIS2_PLACEMENT_3D ( 'NONE', #28, #14, #105 ) ;
#216 =( BOUNDED_SURFACE ( )  B_SPLINE_SURFACE ( 3, 3, ( 
 ( #88, #193, #161, #230 ),
 ( #179, #132, #195, #15 ),
 ( #83, #26, #157, #47 ),
 ( #209, #224, #141, #159 ) ),
 .UNSPECIFIED., .F., .F., .F. ) 
 B_SPLINE_SURFACE_WITH_KNOTS ( ( 4, 4 ),
 ( 4, 4 ),
 ( 0.0000000000000000000, 1.000000000000000000 ),
 ( 0.0000000000000000000, 1.000000000000000000 ),
 .UNSPECIFIED. ) 
 GEOMETRIC_REPRESENTATION_ITEM ( )  RATIONAL_B_SPLINE_SURFACE ( (
 ( 1.000000000000000000, 0.9938595386838925400, 0.9938595386838925400, 1.000000000000000000),
 ( 0.9752605884889004000, 0.9692720385721601600, 0.9692720385721601600, 0.9752605884889004000),
 ( 0.9752605884889004000, 0.9692720385721601600, 0.9692720385721601600, 0.9752605884889004000),
 ( 1.000000000000000000, 0.9938595386838925400, 0.9938595386838925400, 1.000000000000000000) ) ) 
 REPRESENTATION_ITEM ( '' )  SURFACE ( )  );
#217 = APPROVAL_DATE_TIME ( #21, #97 ) ;
#218 = LOCAL_TIME ( 17, 5, 49.00000000000000000, #25 ) ;
#219 = CARTESIAN_POINT ( 'NONE',  ( 19.04999999999999700, -8.881784197001250400E-016, 2.587869838256240000 ) ) ;
#220 = CARTESIAN_POINT ( 'NONE',  ( -4.662936703425659800E-015, -8.881784197001250400E-016, 2.587869838256240400 ) ) ;
#221 = EDGE_CURVE ( 'NONE', #79, #20, #31, .T. ) ;
#222 = APPROVAL_PERSON_ORGANIZATION ( #102, #61, #235 ) ;
#223 = DIRECTION ( 'NONE',  ( -2.331176954593499900E-017, -1.086877198725570000E-033, -1.000000000000000000 ) ) ;
#224 = CARTESIAN_POINT ( 'NONE',  ( 6.245664012216553700, 19.27291578981790100, 2.649962064011439200 ) ) ;
#225 = UNCERTAINTY_MEASURE_WITH_UNIT (LENGTH_MEASURE( 1.000000000000000100E-005 ), #90, 'distance_accuracy_value', 'NONE');
#226 = CARTESIAN_POINT ( 'NONE',  ( -19.05000000000000400, 1.444773732675583000E-015, 2.587869838256240800 ) ) ;
#227 = CARTESIAN_POINT ( 'NONE',  ( -19.40451748197361300, 6.587270457864657500, 1.746313637972427300 ) ) ;
#228 = CYLINDRICAL_SURFACE ( 'NONE', #120, 19.05000000000000100 ) ;
#229 = DIRECTION ( 'NONE',  ( 1.000000000000000000, 0.0000000000000000000, -0.0000000000000000000 ) ) ;
#230 = CARTESIAN_POINT ( 'NONE',  ( 18.45041732457644600, -19.27291578981790800, 5.171605412664490600 ) ) ;
#231 = APPLICATION_CONTEXT ( 'configuration controlled 3d designs of mechanical parts and assemblies' ) ;
#232 = APPROVAL ( #233, 'UNSPECIFIED' ) ;
#233 = APPROVAL_STATUS ( 'not_yet_approved' ) ;
#234 = PERSON_AND_ORGANIZATION_ROLE ( 'creator' ) ;
#235 = APPROVAL_ROLE ( '' ) ;
ENDSEC;
END-ISO-10303-21;
